>
 >
Gravity

Gravity Guitar Tabs

Urban Dub - Gravity chords, tabs, tablatures, lyrics

Guitar lessons | Add/correct | Request | Top 50 tabs Artists:  A B C D E F G H I J K L M N O P Q R S T U V W X Y Z 0-9

Gravity Guitar Tabs – Urban Dub

CD, Sheet music, Poster

Do you like Gravity? Share with your friends now
ChordsTabsUkulele
pages/Arista-Lucena/226729694026830

Urbandub - Gravity

pages/Arista-Lucena/226729694026830

Tuning Drop C #

Gtr I - John
GtrII - Gabby
Bass(5string)- Lalay

* - Palm mute
/ - slide
h - hammer on
+ - harmonic
x -  dead note
^ or b - bend


Paalala:wag gamitin(copy paste,pag-aralan,etc.)ng walang pahintulot sa author ng tab ")

magemail/txt muna...

Intro-
1.0:00
Bass
Gb|-----------------------------------------------|
Db|-----------------------------------------------|
Ab|-------------15------------12------------------|4x
C#|-0h12-15-0h12----0h12-15p0----0-10-10-10h12----|
Bb|-----------------------------------------------|

2.Drum enters 0:17
Bass
Gb|-----------------------------------------------|
Db|-----------------------------------------------|
Ab|-------------15------------12------------------|4x
C#|-0h12-15-0h12----0h12-15p0----0-10-10-10h12----|
Bb|-----------------------------------------------|

GtrI 0:18(with efx)
eb|---------------------------------------------------------------------------|
bb|-------------------------------------------------------------------7+~-----|
gb|-----7+~-------------------------------------------------------------------|
Db|-----5+~-------------------------------------------------------------------|
Ab|---------------------------------------------------------------------------|
C#|---------------------------------------------------------------------------|

Verse-
09283150081
loc-Lucena City
GtrII O:28-0:47

eb|-----------------------------------------------------------------|
bb|-----------------------------------------------------------------|
gb|-----------------------------------------------------------------|
Db|---------0~--0~--0~--0~--0~--0~--0~--0~--0~--0~--0~--0~--0~--0~--|x
Ab|---------0~--0~--0~--0~--0~--0~--0~--0~--0~--0~--0~--0~--0~--0~--|x
C#|101010--12~-12~-12~-12~-12~-12~-12~-12~-12~-12~-12~-12~-12~-12~--|

eb|-----------------------------------------------------------------|
bb|-----------------------------------------------------------------|
gb|-----------------------------------------------------------------|
Db|-0~--0~--0~--0~--0~--0~--0~--0~--0~--0~--0~--0~--0~--0~--0~--0~--|x
Ab|-0~--0~--0~--0~--0~--0~--0~--0~--0~--0~--0~--0~--0~--0~--0~--0~--|x
C#|12~-12~-12~-12~-12~-12~-12~-12~-12~-12~-12~-12~-12~-12~-12~-12~--|

GtrI 0:30
eb|---------------------------------------------------------------------------|
bb|-------------------------------------------------------------------7+~-----|
gb|---------------------------------------------------------------------------|
Db|-----5+~-------------------------------------------------------------------|
Ab|---------------------------------------------------------------------------|
C#|---------------------------------------------------------------------------|

GtrI 0:38
eb|-----------------------------------------------|
bb|-----------------------------------------------|
gb|-----------------------------------------------|
Db|-----------------------------------------------|
Ab|-------------15------------12------------------|4x
C#|-0-12-15-0-12----0-12-15-0----0-10-10-10h12----|
    * *     * *     * *     *    *
09283150081
loc-Lucena City
PreChorus-
Gtrs
eb|-----------------------------------------------------------------------|
bb|-----------------------------------------------------------------------|
gb|------10-----9-----9----------------------10-----9-----9---------------|
Db|------8------8-----10---------------------8------8-----10--------------|
Ab|-------------------------10---10h12---------------------------10--1010-|
C#|-8888-----88----8-----88-8--8-8------8888-----88----8-----88-8--8-8-8--|
    ****     **    *     ** *  * *      ****     **    *     ** *  *

Bass
Gb|-----------------------------------------------|
Db|-----------------------------------------------|
Ab|-----------------------------------------------|
C#|-8-8-8-8-8-8-8-8-8-8-8-8-8-8-8-8-8-8-8-8-8-8-8-|
Bb|-----------------------------------------------|
09283150081
loc-Lucena City
Chorus
GtrII
eb|----------------------------------------------------------------------|
bb|----------------------------------------------------------------------|
gb|-5-5-5-5-5-5-5-5-5-5-5-5-5-5-5-5-9-9-9-9-9-9-9-9-9-9-9-9-9-9-9-9------|
Db|-5-5-5-5-5-5-5-5-5-5-5-5-5-5-5-5-9-9-9-9-9-9-9-9-9-9-9-9-9-9-9-9------|2x
Ab|-3-3-3-3-3-3-3-3-3-3-3-3-3-3-3-3-7-7-7-7-7-7-7-7-7-7-7-7-7-7-7-7------|
C#|-3-3-3-3-3-3-3-3-3-3-3-3-3-3-3-3-7-7-7-7-7-7-7-7-7-7-7-7-7-7-7-7------|

GtrI
eb|----------------------------------------------------------------------|
bb|-------5--------------5-----------------8------------8-8--------------|
gb|-5---5---5---5-55~--5---5----5----9---9----9h10p9-9------9--9---------|
Db|-3~-3-3----3---33~-3-3----3-------7--7-7--7-------9-7-7---------------|
Ab|-3~------------33~----------------7---------------7-------------------|
C#|-3~------------33~----------------7---------------7-------------------|

eb|-----------------------------------------|-----------------------------------|
bb|-----------------------------------------|-----------------------------------|
gb|-5-55--9-9--1010--12-12-12-12-1414141414-|-9-9-9-9-9-9/10\9--9-9-9-9-9-------|
Db|-5-5-------------------------------------|-----------------------------------|
Ab|-3-33--7-7--8--8--10-10-10-10-1212121212-|-7-7-7-7-7-7/8-\7--7-7-7-7-7-------|
C#|-3-3--------------------------------------|----------------------------------|


Verse-

GtrI
eb|---------------------------------------------------------------------------|
bb|---------------------------------------------------------------------------|
gb|---------------------------------------------------------------------------|
Db|-0~------------------------------------------------------------------------|
Ab|-0~------------------------------------------------------------------------|
C#|-0~------------------------------------------------------------------------|


GtrI 1:19
eb|-----------------------------------------------------------------------------|
bb|-----------------------------------------------------------------------------|
gb|-----------------------------------------------------------------------------|
Db|-----5+~---------------------------------------------------------------------|
Ab|-----------------------------------------------------------------------------|
C#|-----------------------------------------------------------------------------|

GtrI 1:23
eb|-----------------------------------------------|
bb|-----------------------------------------------|
gb|-----------------------------------------------|
Db|-----------------------------------------------|
Ab|-------------15------------12------------------|4x
C#|-0-12-15-0-12----0-12-15-0----0-10-10-10h12----|
    * *     * *     * *     *    *

Repeat Prechorus
then Chorus
09283150081
loc-Lucena City

Bridge-(laruin nyo na lang)
GtrII Dm/G 4x Em/A 2x Dm/G 4x
GtrI
eb|-7~--5-6-6/8-6-5----------------------5~----5-6-6/8-6-5-------------------|
bb|-6~---------------6---6/8-------------6~-----------------6--8~------------|
gb|-5~-----------------------------------5~----------------------------------|
Db|-7~-----------------------------------7~----------------------------------|
Ab|-5~-----------------------------------5~----------------------------------|
C#|-5~-----------------------------------5~----------------------------------|

eb|-7~------------------------------------5~----------------------------------|
bb|-6~------------------------------------6~----------------------------------|
gb|-5~------------------------------------5~----------------------------------|
Db|-7~------------------------------------7~----------------------------------|2x
Ab|-5~------------------------------------5~----------------------------------|
C#|-5~------------------------------------5~----------------------------------|

2:19
eb|-7~----------7--------------------7-----------------------------------|
bb|-8~-------------8--------------------8--------------------------------|
gb|-7~------9---------------------9--------------------------------------|
Db|-9~-------------------------------------------------------------------|2x
Ab|-7~-------------------------------------------------------------------|
C#|-7~-------------------------------------------------------------------|

2:30

eb|-7~-------5----------5-----------------5~----------5--------------5--------|
bb|-6~---------6----------6---------------6~-------------6--------------6-----|
gb|-5~----7---------7---------------------5~-----7---------------7------------|
Db|-7~------------------------------------7~----------------------------------|2x
Ab|-5~------------------------------------5~----------------------------------|
C#|-5~------------------------------------5~----------------------------------|

2:29
GtrII Am
GtrI
eb|---------------------------------------------------------------------------|
bb|-10---12----10---12----13---12----10----12---------------------------------|
gb|----12---12---12----12----12----12----12-----------------------------------|
Db|---------------------------------------------------------------------------|
Ab|---------------------------------------------------------------------------|
C#|---------------------------------------------------------------------------|

Presolo-
2:43
GtrI
eb|--------------------------------------------|
bb|--------------------------------------------|
gb|-9------------7-7--9-9------------7-7--9----|
Db|----7-7--1010-----------7-7--1010-----------|
Ab|--------------------------------------------|
C#|--------------------------------------------|


eb|--0-0-0-0-0-0-0-0-0-0-0-0-0-0-0-0-----------|
bb|--1-1-1-1-1-1-1-1-1-1-1-1-1-1-1-1-----------|
gb|--2-2-2-2-2-2-2-2-2-2-2-2-2-2-2-2-----------|
Db|--2-2-2-2-2-2-2-2-2-2-2-2-2-2-2-2-----------|
Ab|--0-0-0-0-0-0-0-0-0-0-0-0-0-0-0-0-----------|
C#|--------------------------------------------|

Solo-
09283150081
loc-Lucena City
2:48
GtrI
eb|----------------------------------------|------------------------------------------|
bb|----------------------------------------|------------------------------------------|
gb|-9/10-10--9-10--10/12-10/9--9-9-9-9-9-9-|-9/10-10--9-10--10/12-10/9--9-9^-9-9-9^-9-|
Db|----------------------------------------|------------------------------------------|
Ab|----------------------------------------|------------------------------------------|
C#|----------------------------------------|------------------------------------------|

GtrII
eb|------------------------------------------------|
bb|------------------------------------------------|
gb|------------------------------------------------|
Db|-3-3-3-3-3-3--7-7777777---3-3-3-3-3-3--77777777-|
Ab|-3-3-3-3-3-3--7-7777777---3-3-3-3-3-3--77777777-|
C#|-3-3-3-3-3-3--7-7777777---3-3-3-3-3-3--77777777-|
2:59
 GtrI
eb|-----------------------------------------------------------------|
bb|-----------------------------------------------------------------|
gb|-88-88-888---7-7777777-55/7--888888--8/10--1212-12/14-1414141414-|
Db|-----------------------------------------------------------------|
Ab|-66-66-666---5-5555555-33/5--666666--6/8---1010-10/12-1212121212-|
C#|-----------------------------------------------------------------|

GtrII
eb|------------------------------------------------|
bb|------------------------------------------------|
gb|------------------------------------------------|
Db|-1-1-1-1-1-1-5--5555555--1-1-1-1-1-1-5--5555555-|
Ab|-1-1-1-1-1-1-5--5555555--1-1-1-1-1-1-5--5555555-|
C#|-1-1-1-1-1-1-5--5555555--1-1-1-1-1-1-5--5555555-|

3:09
GtrI
eb|------------------------------------------------|
bb|------------------------------------------------|
gb|----10-10-10-10-10-10-10-10-10-10-10-10-10-10---|
Db|------------------------------------------------|
Ab|----8--8--8--8--8--8--8--8--8--8--8--8--8--8----|
C#|------------------------------------------------|

or

eb|--------8-----------8----------8----------8----|
bb|-10----------10-------10-11---------11---------|
gb|----10----10-----10---------10----10---10--10--|
Db|-----------------------------------------------|
Ab|-----------------------------------------------|
C#|-----------------------------------------------|


GtrII
eb|-----------------------------------------------|
bb|-xxxxxxx------11/13-xx-13/15-x----x------------|
gb|-xxxxxxx-9/10-------xx-------x-14-x-12-14------|
Db|-xxxxxxx-------8/10-xx-10/12-x----x------------|
Ab|---------7/8-------------------12---10-12------|
C#|-----------------------------------------------|

eb|---------------------------------------------|
bb|-xxxxxxx------11/13-xx-13/15-x----x----------|
gb|-xxxxxxx-9/10-------xx-------x-14-x-12~------|
Db|-xxxxxxx-------8/10-xx-10/12-x----x----------|
Ab|---------7/8-------------------12---10~------|
C#|---------------------------------------------|

Do Chorus
09283150081
loc-Lucena City
Coda-
GtrI 0:38
eb|---------------------------------------------------|
bb|---------------------------------------------------|
gb|---------------------------------------------------|4x
Db|---------------------------------------------------|
Ab|-------------15-----------15-(2x)-------------15b--|
C#|-0-12-15-0-12---0-12-15-0---------0-12-15-0-12-----|
    * *     * *    * *     *         * *     * *
GtrII O:28-0:47
eb|-----------------------------------------------------------------|
bb|-----------------------------------------------------------------|
gb|-----------------------------------------------------------------|
Db|-----------------------------------------------------------------|
Ab|-0~--0~--0~--0~--0~--0~--0~--0~--0~--0~--0~--0~--0~--0~--0~--0~--|x
C#|12~-12~-12~-12~-12~-12~-12~-12~-12~-12~-12~-12~-12~-12~-12~-12~--|
Outro-
GtrII
eb|---------------------------------------------------|
bb|---------------------------------------------------|
gb|---------------------------------------------------|
Db|---------------------------------------------------|2x
Ab|-------------15-----------15-(2x)-------------15b--|
C#|-0-12-15-0-12---0-12-15-0---------0-12-15-0-12-----|
    * *     * *    * *     *         * *     * *
GtrI 3:44
eb|---------------------------------------------------------------------------|
bb|-3-3-3-6-6-5-5-5-6-6-6-8-8-6-6-6----5-5-5-6-6-6-8-8-8-10-10-10-15-15-15-15-|
gb|---------------------------------------------------------------------------|
Db|---------------------------------------------------------------------------|
Ab|---------------------------------------------------------------------------|
C#|---------------------------------------------------------------------------|


end with
GtrI
eb|---------------------------------------------------|
bb|---------------------------------------------------|
gb|---------------------------------------------------|
Db|---------------------------------------------------|2x
Ab|-------------3------------3--(2x)-------------3b---|
C#|-0-0--3--0-0----0-0-3-0-0---------0-0-3---0-0------|
    * *     * *    * *   * *         * *     * *

eb|-------------------------------------------------|
bb|-------------------------------------------------|
gb|-------------------------------------------------|
Db|-------------------------------------------------|
Ab|--------------3------------3-(2x)-0-0-0-0-0-0-0--|
C#|-0-0--3--0-0-----0-0-3-0-0--------0-0-0-0-0-0-0--|
    * *     * *     * *   * *        * * * * * * *

GtrII
eb|---------------------------------------------------|
bb|---------------------------------------------------|
gb|---------------------------------------------------|
Db|---------------------------------------------------|2x
Ab|-------------15-----------15-(2x)-------------15b--|
C#|-0-12-15-0-12---0-12-15-0---------0-12-15-0-12-----|
    * *     * *    * *     *         * *     * *
eb|-------------------------------------------------|
bb|-------------------------------------------------|
gb|-------------------------------------------------|
Db|-------------------------------------------------|
Ab|--------------15----------15-(2x)-0-0-0-0-0-0-0--|
C#|-0-12-15-0-12----0-12-15----------0-0-0-0-0-0-0--|
    * *     * *     * *  *           * * * * * * *

09283150081
loc-Lucena City


Thanks for nothing...just thank me...lol





Comments


Popular Urban Dub tabs & chords
A New Tattoo Bass Tabs
Alert The Armory 1 Chords
A Method To Chaos Tabs
Alert The Armory 2 Tabs
Come 1 Tabs
Guillotine 1 Tabs
Sailin 1 Tabs
We Kept It Hidden Tabs
Safety In Numbers Ukulele
The Fight Is Over Ukulele


Song lyrics



↑ Back to top | Tablatures and chords are parodies/interpretations of the original songs. You may use it for private study, scholarship, research or language learning purposes only
© 2014 AZChords.com Contact us | Privacy policy | DMCA | Add/correct tabs | Request tabs | Top 50 tabs