>
 >
Frailty

Frailty Bass Tabs

Urban Dub - Frailty chords, tabs, tablatures, lyrics

Guitar lessons | Add/correct | Request | Top 50 tabs Artists:  A B C D E F G H I J K L M N O P Q R S T U V W X Y Z 0-9

Frailty Bass Tabs – Urban Dub

CD, Sheet music, Poster

Do you like Frailty? Share with your friends now
Bass TabsBass Tabs v2ChordsTabsTabs v2Tabs v3Ukulele
Rest 4 bars, then . . . 

G|-------------|-------------|
D|-------------|-------------|
A|-777777------|-------------|
E|----------22-|-444444---00-| 2x

G|------------------|------------------|
D|------------------|------------------|
A|-7777777777777777-|------------------|
E|------------------|-4444444444444444-| 2X

  (0:23) This bottle is . . . 
G|---|---|---|---|
D|---|---|---|---|
A|---|---|---|---|
E|---|---|---|---|

  (0:35) . . .  town
G|--------------|-------------|
D|--------------|-------------|
A|--------------|-------------|
E|-44-44-442244-|-44-44234423-| 4X

  (0:56)
G|-----|-----|
D|-----|-----|
A|-----|-----|
E|-0---|-2---|

  (1:01) In this world . . .
G|------------------|------------------|
D|------------------|------------------|
A|-7777777777777777-|------------------|
E|------------------|-4444444444444444-| 3X

  (1:20) . . . we wonít make it through . . . 
G|------------------|------------------|
D|------------------|------------------|
A|-7777777777777777-|-9999999999999999-|
E|------------------|------------------|

  (1:26)
G|-------------------------------|
D|-66666666-66666666-6666-666644-|
A|-------------------------------|
E|-------------------------------| 2X
  
 
  (1:32) I feel so alone . . .
G|--------------|-------------|
D|--------------|-------------|
A|--------------|-------------|
E|-44-44-442244-|-44-44234423-| 4X

  (1:53) . . . breath new life in me . . . 
G|----------|----------|
D|----------|----------|
A|----------|----------|
E|-0-----00-|-2-----77-|

  (1:59) In this world . . .
G|------------------|------------------|
D|------------------|------------------|
A|-7777777777777777-|------------------|
E|------------------|-4444444444444444-| 3X

  (2:17) . . . we wonít make it through . . .
G|------------------|------------------|
D|------------------|------------------|
A|-7777777777777777-|-9999999999999999-|
E|------------------|------------------|
  
  (2:24) I greet the morning . . .
G|------------------|------------------|------------------|------------------|
D|------------------|------------------|------------------|------------------|
A|------------------|------------------|-6666666666666666-|-6666666666666666-|
E|-7777777777777777-|-7777777777777777-|------------------|------------------|

  (2:36) . . . eye. Awaken the . . .
G|------------------|------------------|------------------|------------------|
D|------------------|------------------|------------------|------------------|
A|------------------|------------------|-6666666666666666-|-6666666666666666-|
E|-7777777777777777-|-7777777777777777-|------------------|------------------|

  (2:47) . . . now
G|----------|----------|------------------|-------------------|
D|----------|----------|------------------|-------------------|
A|-7~~~~~~~-|-9~~~~~~~-|------------------|-------------------|
E|----------|----------|-4444444444444444-|-22222222----------|

  (2:58) This world . . .
G|------------------|------------------|
D|------------------|------------------|
A|-7777777777777777-|------------------|
E|------------------|-4444444444444444-| 3X

  (3:17) . . . we wonít make it through . . .
G|------------------|------------------|
D|------------------|------------------|
A|-7777777777777777-|-9999999999999999-|
E|------------------|------------------|

 
  (3:24) 			Away in this sleeping heart of mine . . .		. . . Awaken
G|------------------|------------------|------------------|------------------|
D|------------------|------------------|------------------|------------------|
A|------------------|------------------|-6666666666666666-|-6666666666666666-|
E|-7777777777777777-|-7777777777777777-|------------------|------------------|

  (3:35) . . . this heart
G|------------------|------------------|------------------|------------------|
D|------------------|------------------|------------------|------------------|
A|------------------|------------------|-6666666666666666-|-6666666666666666-|
E|-7777777777777777-|-7777777777777777-|------------------|------------------|

  (3:47)
G|-----------------|------------------|
D|-----------------|------------------|
A|-777777777777777-|-9999999999999999-|
E|-----------------|------------------|

  (3:53)
G|-------------------------------|
D|-66666666-66666666-6666-666644-|
A|-------------------------------|
E|-------------------------------| 2X





Comments


Popular Urban Dub tabs & chords
Apart Bass Tabs
Come Bass Tabs
Guillotine Bass Tabs
A New Tatoo Intro 1 Tabs
A New Tattoo Tabs
Frailty 1 Tabs
Soul Searching Tabs
We Kept It Hidden Tabs
Endless A Silent Whisper Ukulele
We Kept It Hidden Ukulele


Song lyrics



↑ Back to top | Tablatures and chords are parodies/interpretations of the original songs. You may use it for private study, scholarship, research or language learning purposes only
© 2014 AZChords.com Contact us | Privacy policy | DMCA | Add/correct tabs | Request tabs | Top 50 tabs