>
 >
Frailty

Frailty Guitar Tabs

Urban Dub - Frailty chords, tabs, tablatures, lyrics

Guitar lessons | Add/correct | Request | Top 50 tabs Artists:  A B C D E F G H I J K L M N O P Q R S T U V W X Y Z 0-9

Frailty Guitar Tabs – Urban Dub

CD, Sheet music, Poster

Do you like Frailty? Share with your friends now
Bass TabsBass Tabs v2ChordsTabsTabs v2Tabs v3Ukulele


Tuning: Drop D tapos half step down
may effects ung ibang parts sa kanta kaya kung meron kaung
distortion, delay pati tremolo/pan mas maganda.

Intro (distortion)
guitar 1
Eb|--------------------------------------||
Bb|--------------------------------------||
Gb|--------------------------------------|| (2x)
Db|--33333x---5x-55/7777x----------------||
Ab|--33333x---5x-55/7777x--------5-7-----||
Db|--33333x---5x-55/7777x--7-5-7---------||

guitar 2
Eb|--------------------------------------------||
Bb|--------------------------------------------||
Gb|--------------------------------------------|| (2x)
Db|--33333h5555--------------------------------||
Ab|--3333------55555555/7777/10101010\5555555--||
Db|--3333--------------------------------------||

guitar 1
Eb|---------------------------------------------||
Bb|---------------------------------------------||
Gb|---------------------------------------------|| (2x)
Db|--33333333h555555-5-55/77777-7-7-7-----------||
Ab|--33333333-333333-5-55/77777101010-------5-7-||
Db|--33333333-333333-5-55/77777-7-7-7-7-5-7-----||

guitar 2
Eb|-----------------------------------------------------||
Bb|--10---------------------------------------8-10-8h10-||
Gb|-----9-10--9h10-10s12-1212s10-1010s9-9-7-9-----------||
Db|-----------------------------------------------------||
Ab|-----------------------------------------------------||
Db|-----------------------------------------------------||

Eb|------------------------------------------||
Bb|------------------------------------------||
Gb|--9-10~--9h10-10s12-1212s10-1010s9-9-7-9--||
Db|------------------------------------------||
Ab|------------------------------------------||
Db|------------------------------------------||

Verse 1
guitar 2 (clean)
Eb|-------3------3------3------3---||
Bb|----5------5------5------5------||
Gb|---5--5---5--5---5--5---5--5----||
Db|--3--3---3--3---0--0---0--0-----||
Ab|--------------------------------||
Db|--------------------------------||
                           (w/ tremolo)
Eb|-------3------3------3---3~-----||
Bb|----5------5------5------5~-----||
Gb|---5--5---5--5---5--5----5~-----||
Db|--3--3---3--3---0--0-----3~-----||
Ab|--------------------------------||
Db|--------------------------------||

bass (same tuning)
Eb|-----------------------------------------------------||
Bb|-----------------------------------------------------||
Gb|-----------------------------------------------------||
Db|--33-33-33-00-33-33-00-55-22-77-77-00-77-77-00-77-00-||

guitar 2 (w/ delay)
pakinggan nyo nlng kung klan papasok
Eb|-------8-----------------8------------------8---------||
Bb|-------8------------10-8---10-8h10-----10-8---10-8h10-||
Gb|--5--7-9--------7h9----------------7h9----------------||
Db|------------------------------------------------------||
Ab|------------------------------------------------------||
Db|------------------------------------------------------||

Eb|------------------------------------------------------||
Bb|-8h10101010101010s121212121212s10--10--------10-12-13-||
Gb|-7h-9-9-9-9-9-9-9-121212121212s-9-----9-10-9----------||
Db|------------------------------------------------------||
Ab|------------------------------------------------------||
Db|------------------------------------------------------||
papasok ung guitar 1 (w/ distortion)
Eb|------------------------------------------------------||
Bb|------------------------------------------------------||
Gb|------------------------------------------------------||
Db|------------------------------------3~------------3-5~||
Ab|------------------------------------3~------------3-5~||
Db|------------------------------------3~------------3-5~||

Chorus (distortion)
guitar 1
Eb|--------------------------------||
Bb|--------------------------------||
Gb|--------------------------------|| 3x
Db|--333333333x--77777777755555555-||
Ab|--333333333x--77777777755555555-||
Db|--333333333x--77777777755555555-||

guitar 2
in this world...
Eb|-----------------------------------------||
Bb|-----------------------------------------||
Gb|---------------------999999999x7-7777----||
Db|--333333333h55555----xxxxxxxxxxx-xxxx----||
Ab|--333333333------555-777777777x5-5555----||
Db|--333333333------------------------------||
says it all...
Eb|-------------------------------------------||
Bb|-------------------------------------------||
Gb|---------------------999999999x12-12121212-||
Db|--333333333h55555----xxxxxxxxxx-x--x-x-x-x-||
Ab|--333333333------555-777777777x10-10101010-||
Db|--333333333--------------------------------||
in you now...
Eb|-----------------------------------------------------------||
Bb|-----------------------------------------------------------||
Gb|-------------9/12121212\777-141414141414141414x12-12121212-||
Db|--333333333--x--x-x-x-x-xxx--x-x-x-x-x-x-x-x-xx-x--x-x-x-x-||
Ab|--333333333--7/10101010\555-121212121212121212x10-10101010-||
Db|--333333333------------------------------------------------||

guitar 1
won't make it through
Eb|----------------------------||
Bb|----------------------------||
Gb|----------------------------||
Db|--333333333333555555555555--||
Ab|--333333333333555555555555--||
Db|--333333333333555555555555--||
guitar 2
Eb|----------------------------------||
Bb|----------------------------------||
Gb|--999-101010-121212-999-1010-1212-|| (2x)
Db|--xxx--x-x-x--x-x-x-xxx--x-x--x-x-||
Ab|--777--8-8-8-101010-777--8-8-1010-||
Db|----------------------------------||

pre-verse
guitar 1&2
Eb|--------------------||
Bb|--------------------||
Gb|--------------------||
Db|--777-7777-77-77-5--||
Ab|--777-7777-77-77-5--||
Db|--777-7777-77-77-5--||

Verse 2
guitar 2 (w/ delay)
parang verse 1 pero wla ung first part
Eb|-----------8------------------8---------||
Bb|------10-8---10-8h10-----10-8---10-8h10-||
Gb|--7h9----------------7h9----------------||
Db|----------------------------------------||
Ab|----------------------------------------||
Db|----------------------------------------||

Eb|------------------------------------------------------||
Bb|-8h10101010101010s121212121212s10--10--------10-12-13-||
Gb|-7h-9-9-9-9-9-9-9-121212121212s-9-----9-10-9----------||
Db|------------------------------------------------------||
Ab|------------------------------------------------------||
Db|------------------------------------------------------||
papasok ung guitar 1 (w/ distortion)
Eb|------------------------------------------------------||
Bb|------------------------------------------------------||
Gb|------------------------------------------------------||
Db|------------------------------------3~------------3-5~||
Ab|------------------------------------3~------------3-5~||
Db|------------------------------------3~------------3-5~||

chorus 2
guitar 1
Eb|--------------------------------||
Bb|--------------------------------||
Gb|--------------------------------|| 3x
Db|--333333333x--77777777755555555-||
Ab|--333333333x--77777777755555555-||
Db|--333333333x--77777777755555555-||

guitar 2
in this world...
Eb|-----------------------------------------||
Bb|-----------------------------------------||
Gb|---------------------999999999x7-7777----||
Db|--333333333h55555----xxxxxxxxxxx-xxxx----||
Ab|--333333333------555-777777777x5-5555----||
Db|--333333333------------------------------||
says it all...
Eb|-------------------------------------------||
Bb|-------------------------------------------||
Gb|---------------------999999999x12-12121212-||
Db|--333333333h55555----xxxxxxxxxx-x--x-x-x-x-||
Ab|--333333333------555-777777777x10-10101010-||
Db|--333333333--------------------------------||
in you now...
Eb|-----------------------------------------------------------||
Bb|-----------------------------------------------------------||
Gb|-------------9/12121212\777-141414141414141414x12-12121212-||
Db|--333333333--x--x-x-x-x-xxx--x-x-x-x-x-x-x-x-xx-x--x-x-x-x-||
Ab|--333333333--7/10101010\555-121212121212121212x10-10101010-||
Db|--333333333------------------------------------------------||

guitar 1
won't make it through
Eb|----------------------------||
Bb|----------------------------||
Gb|----------------------------||
Db|--333333333333555555555555--||
Ab|--333333333333555555555555--||
Db|--333333333333555555555555--||
guitar 2
Eb|----------------------------------||
Bb|----------------------------------||
Gb|--999-101010-121212-999-1010-1212-|| (2x)
Db|--xxx--x-x-x--x-x-x-xxx--x-x--x-x-||
Ab|--777--8-8-8-101010-777--8-8-1010-||
Db|----------------------------------||

Bridge 
guitar 1
Eb|----------------------7777----||
Bb|-------12121212-------8888----||
Gb|-------12121212-------9999----|| (2x)
Db|-10-10-10101010---7-7-7777----||
Ab|-10-10-10101010---7-7-7777----||
Db|-10-10-10101010---7-7-7777----||

guitar 2
Eb|-----------------------------||
Bb|-----------------------------||
Gb|-5-7-5-7-5-77-9-7-9-7-9-7-9--|| (2x)
Db|-----------------------------||
Ab|-----------------------------||
Db|-----------------------------||

guitar 1
 let ring hanggang..d2
Eb|------------------------------------------------------||
Bb|------------------------------------------------------||
Gb|------------------------------------------------------||
Db|--3~--------------------------------777777777--3333---||
Ab|--3~--------------------------------777777777--3333---||
Db|--3~--------------------------------777777777--3333---||

guitar 2 (w/ delay)
Eb|------------------------------------------------------||
Bb|--10--------10-12-13-12-13-15-13h15-15-17-15----15-13-||
Gb|-----9-10-9-------------------------------------------||
Db|------------------------------------------------------||
Ab|------------------------------------------------------||
Db|------------------------------------------------------||

Chorus 3
guitar 1
Eb|--------------------------------||
Bb|--------------------------------||
Gb|--------------------------------|| 3x
Db|--333333333x--77777777755555555-||
Ab|--333333333x--77777777755555555-||
Db|--333333333x--77777777755555555-||

guitar 2
this world...
Eb|-------8-----------------------------------------||
Bb|--10-8---101010-9999h10-1010-1212-1010-99-77-5h7-||
Gb|-------------------------------------------------|| (2x)
Db|-------------------------------------------------||
Ab|-------------------------------------------------||
Db|-------------------------------------------------||

in you now...
Eb|-----------------------------------------------------------||
Bb|-----------------------------------------------------------||
Gb|-------------9/12121212\777-141414141414141414x12-12121212-||
Db|--333333333--x--x-x-x-x-xxx--x-x-x-x-x-x-x-x-xx-x--x-x-x-x-||
Ab|--333333333--7/10101010\555-121212121212121212x10-10101010-||
Db|--333333333------------------------------------------------||

guitar 1
won't make it through
Eb|----------------------------||
Bb|----------------------------||
Gb|----------------------------||
Db|--333333333333555555555555--||
Ab|--333333333333555555555555--||
Db|--333333333333555555555555--||
guitar 2
Eb|--------------------------------------||
Bb|--------------------------------------||
Gb|--999-101010-121212-999-1010-1212-----|| 
Db|--xxx--x-x-x--x-x-x-xxx--x-x--x-x--5~-||
Ab|--777--8-8-8-101010-777--8-8-1010--5~-||
Db|-----------------------------------5~-||

Bridge 2
guitar 1
Eb|----------------------7777----||
Bb|-------12121212-------8888----||
Gb|-------12121212-------9999----|| (2x)
Db|-10-10-10101010---7-7-7777----||
Ab|-10-10-10101010---7-7-7777----||
Db|-10-10-10101010---7-7-7777----||

guitar 2
Eb|-----------------------------||
Bb|-----------------------------||
Gb|-5-7-5-7-5-77-9-7-9-7-9-7-9--|| 
Db|-----------------------------||
Ab|-----------------------------||
Db|-----------------------------||

Eb|----------------------------------------||
Bb|--8-10-8--------------------------------||
Gb|---------10-9-7----7-9-7----------------||
Db|----------------10-------10-10101010s12-||
Ab|----------------------------------------||
Db|----------------------------------------||

Eb|--7-8-7-5-----------------------------||
Bb|----------8-6-5-6-8-6-5-55-5-5-5h6666-||
Gb|--------------------------------------||
Db|--------------------------------------||
Ab|--------------------------------------||
Db|--------------------------------------||

guitar 1
Eb|----------------------------||
Bb|----------------------------||
Gb|----------------------------||
Db|--333333333333555555555555--||
Ab|--333333333333555555555555--||
Db|--333333333333555555555555--||
guitar 2
Eb|----------------------------------||
Bb|----------------------------------||
Gb|--999-101010-121212-999-1010-1212-|| (2x)
Db|--xxx--x-x-x--x-x-x-xxx--x-x--x-x-||
Ab|--777--8-8-8-101010-777--8-8-1010-||
Db|----------------------------------||

Outro
guitar 1
Eb|--------------------||
Bb|--------------------||
Gb|--999-9999-99-99-7--|| (2x)
Db|--777-7777-77-77-5--||
Ab|--777-7777-77-77-5--||
Db|--777-7777-77-77-5--||
guitar 2 (after 1st of guitar 1)
Eb|---------------------------||
Bb|---------------------------||
Gb|------------------------7--||
Db|--101010-101010-9-99-99-5--||
Ab|---7-7-7--7-7-7-7-77-77-5--||
Db|---7-7-7--7-7-7-7-77-77-5--||





Comments


Popular Urban Dub tabs & chords
Alert The Armory 1 Chords
Safety In Numbers Chords
Alert The Armory 1 Tabs
First Of Summer 2 Tabs
Frailty 2 Tabs
Run Away 2 Tabs
Run Away 3 Tabs
Soul Searching 2 Tabs
Soul Searching 4 Tabs
Soul Searching 5 Tabs


Song lyrics



↑ Back to top | Tablatures and chords are parodies/interpretations of the original songs. You may use it for private study, scholarship, research or language learning purposes only
© 2014 AZChords.com Contact us | Privacy policy | DMCA | Add/correct tabs | Request tabs | Top 50 tabs