» » »

Urban Dub, Fallen On Deaf Ears Tabs (ver.4)

Artists:  A B C D E F G H I J K L M N O P Q R S T U V W X Y Z # 

Fallen On Deaf Ears Tabs (ver.4)

Urban Dub Tabs
 Rating:
4.2/5 (5 votes)
Fallen On Deaf Ears lessons Tabs too difficult? Try these video lessons and learn fast
                "Fallen On Deaf Ears" by "Urbandub"

Guitar 1 (Drop D)

Intro (clean)

|--------------------| |--------------------|
|--------------------| |-----8-----8---8----|
|-8888888888888888---| |--------------------|
|-6666666666666666---| |-6-6---6-6---6------|
|--------------------| |--------------------|
|--------------------| |--------------------|
                       <--------4x---------->

(distortion)

|----------------------------------|
|----------------------------------|
|----------------------------------|
|-66666666666666666666666666666666-|
|-66666666666666666666666666666666-|
|-66666666666666666666666666666666-|
  ................................

|--------------------------------------------------------------------------|
|--------------------------------------------------------------------------|
|--------------3h5p3p0--------------3h5p3p0--------------------------------|
|-666666666666---------666666666666---------333333333333---------333333333-|
|-666666666666---------666666666666---------333333333333-(pause)-333333333-|
|-666666666666---------666666666666---------333333333333---------333333333-|

verse (clean) x2


|--------------------| |--------------------|
|--------------------| |-----8-----8---8----|
|-8888888888888888---| |--------------------|
|-6666666666666666---| |-6-6---6-6---6------|
|--------------------| |--------------------|
|--------------------| |--------------------|
                       <--------4x---------->

pre-chorus I (distortion)


|-------------------------------------------------------------------|
|-------------------------------------------------------------------|
|-------------------------------------------------------------------|
|-10101010101010101010101010101010-11111111111111111111111111111111-|
|-10101010101010101010101010101010-11111111111111111111111111111111-|
|-10101010101010101010101010101010-11111111111111111111111111111111-|
  ................................ ................................
                           (tens and elevens)

chorus (distortion)


|----------------------------------------------------------------------|
|----------------------------------------------------------------------|
|------------------------------------6666666666666666-3333333333333333-|
|-6666666666666666-33333333333333333-6666666666666666-3333333333333333-|
|-6666666666666666-33333333333333333-4444444444444444-1111111111111111-|
|-6666666666666666-33333333333333333-----------------------------------|
<-----------------------------------x2--------------------------------->

pre-verse (distortion)

|----------------------------------------------|
|----------------------------------------------|
|----------------------------------------------|
|-6-~-5-66--3333333333333333333333333333333333-|
|-6-~-5-66--3333333333333333333333333333333333-|
|-6-~-5-66--3333333333333333333333333333333333-|

(repeat verse)

pre-chorus II (distortion)

|-------------------------------------------------------------------|
|-------------------------------------------------------------------|
|-------------------------------------------------------------------|
|-10101010101010101010101010101010-11111111111111111111111111111111-|
|-10101010101010101010101010101010-11111111111111111111111111111111-|
|-10101010101010101010101010101010-11111111111111111111111111111111-|
  ................................ ................................
                           (tens and elevens)

|--------------------------------------------------|
|--------------------------------------------------|
|--------------------------------------------------|
|-66666666666666666666666666666666-333333333333333-|
|-66666666666666666666666666666666-333333333333333-|
|-66666666666666666666666666666666-333333333333333-|

|------------------------|
|------------------------|
|-66-88-1010101010101010-|
|-xx-xx-x-x-x-x-x-x-x-x--|
|-44-66-8-8-8-8-8-8-8-8--|
|------------------------|

(repeat chorus)

outro (distortion)

|---------------------------------------------------------------------|
|---------------------------------------------------------------------|
|---------------------------------------------------------------------|
|-7777777777777777-1111111111111111-1212121212121212-9999999999999999-|
|-7777777777777777-1111111111111111-1212121212121212-9999999999999999-|
|-7777777777777777-1111111111111111-1212121212121212-9999999999999999-|
                      (elevens)        (twelves)
<----------------------------------x2--------------------------------->

|-------------------|
|-------------------|
|-------------------|
|-6-6666-6-66666666-|
|-6-6666-6-66666666-|
|-6-6666-6-66666666-|
    ....   ........

|--------------------|
|-----8-----8---8----|
|--------------------|
|-6-6---6-6---6------|
|--------------------|
|--------------------|
<---------x4--------->

|-----------------------------------|
|-----------------------------------|
|-8888888888888888------------------|
|-6666666666666666-(until fade out)-|
|-----------------------------------|
|-----------------------------------|






























Guitar 2 (Drop D)

intro (distortion)

|------------------------|
|------------------------|
|-33-55-111-33-55-000000-|
|------------------------|
|------------------------|
|------------------------|
<----------x8------------>

verse (distortion)

|-----------------------------------------------|
|-----------------------------------------------|
|-33-55-111-33-55-000000-33-55-111-33-55-000000-|
|-----------------------------------------------|
|-----------------------------------------------|
|-----------------------------------------------|
<-----------------------x2---------------------->

pre-chorus I (distortion)

|-------------------------------------------------------------------|
|-------------------------------------------------------------------|
|-------------------------------------------------------------------|
|-10101010101010101010101010101010-11111111111111111111111111111111-|
|-10101010101010101010101010101010-11111111111111111111111111111111-|
|-10101010101010101010101010101010-11111111111111111111111111111111-|
  ................................ ................................
                           (tens and elevens)

chorus (distortion)

|--------------------------------------------------------------------------|
|--------------------------------------------------------------------------|
|--------------3h5p3p0---------------3h5p3p0-6666666666666666-333333333333-|
|-666666666666---------3333333333333---------6666666666666666-333333333333-|
|-666666666666---------3333333333333---------4444444444444444-111111111111-|
|-666666666666---------3333333333333---------------------------------------|

|----------------------------------------|
|--8h9p8---------------------------------|
|--------8-10------------------8h10------|
|-------------8h10p8------8h10-----------|
|--------------------8-11----------------|
|----------------------------------------|
<------------------x3-------------------->

|---------------------|
|-8-9-8-9-8-9-8-9-8-9-|
|---------------------|
|---------------------|
|---------------------|
|---------------------|

pre-verse (distortion)

|------------------------|
|------------------------|
|-33-55-111-33-55-000000-|
|------------------------|
|------------------------|
|------------------------|
<----------x4------------>

(repeat verse)

pre-chorus II (distortion)

|-------------------------------------------------------------------|
|-------------------------------------------------------------------|
|-------------------------------------------------------------------|
|-10101010101010101010101010101010-11111111111111111111111111111111-|
|-10101010101010101010101010101010-11111111111111111111111111111111-|
|-10101010101010101010101010101010-11111111111111111111111111111111-|
  ................................ ................................
                           (tens and elevens)

|----------------------------------------------------|
|-66666666666666666666666666666666-8888888888888888--|
|-xxxxxxxxxxxxxxxxxxxxxxxxxxxxxxxx-xxxxxxxxxxxxxxxx--|
|-33333333333333333333333333333333-5555555555555555--|
|----------------------------------------------------|
|----------------------------------------------------|

|------------------------|
|------------------------|
|-66-88-1010101010101010-|
|-xx-xx-x-x-x-x-x-x-x-x--|
|-44-66-8-8-8-8-8-8-8-8--|
|------------------------|

chorus II (distortion)

|--------------------------------------------------------------------------|
|--------------------------------------------------------------------------|
|--------------3h5p3p0---------------3h5p3p0-6666666666666666-333333333333-|
|-666666666666---------3333333333333---------6666666666666666-333333333333-|
|-666666666666---------3333333333333---------4444444444444444-111111111111-|
|-666666666666---------3333333333333---------------------------------------|

|----------------------------------------|
|--8h9p8---------------------------------|
|--------8-10------------------8h10------|
|-------------8h10p8------8h10-----------|
|--------------------8-11----------------|
|----------------------------------------|
<------------------x3-------------------->

|--------------|
|--------------|
|-333333333333-|
|-333333333333-|
|-111111111111-|
|--------------|

outro (distortion)

|---------------------------------------------------------------------|
|---------------------------------------------------------------------|
|---------------------------------------------------------------------|
|-7777777777777777-1111111111111111-1212121212121212-9999999999999999-|
|-7777777777777777-1111111111111111-1212121212121212-9999999999999999-|
|-7777777777777777-1111111111111111-1212121212121212-9999999999999999-|
                      (elevens)        (twelves)

|-----------------------------------|
|-----------------------------------|
|-1313131313131313-1010101010101010-|
|-x-x-x-x-x-x-x-x--x-x-x-x-x-x-x-x--|
|-1010101010101010-8-8-8-8-8-8-8-8--|
|-----------------------------------|
<-----------------x4---------------->

|-------------------|
|-------------------|
|-------------------|
|-6-6666-6-66666666-|
|-6-6666-6-66666666-|
|-6-6666-6-66666666-|
    ....   ........

|------------------------|
|------------------------|
|-33-55-111-33-55-000000-|
|------------------------|
|------------------------|
|------------------------|
<----------x3------------>

|---------------|
|---------------|
|-3-5-1-3-5-0-~-|
|---------------|
|---------------|
|---------------|

THE END
            
Submit corrections

comments powered by Disqus
↑ Back to top | Urban Dub Tabs for Fallen On Deaf Ears. Lyrics for acoustic guitar and electric guitar. Tablatures and chords are parodies/interpretations of the original songs. You may use it for private study, scholarship, research or language learning purposes only