>
 >
Fallen On Deaf Ears 2

Fallen On Deaf Ears 2 Guitar Tabs

Urban Dub - Fallen On Deaf Ears 2 chords, tabs, tablatures, lyrics

Guitar lessons | Add/correct | Request | Top 50 tabs Artists:  A B C D E F G H I J K L M N O P Q R S T U V W X Y Z 0-9

Fallen On Deaf Ears 2 Guitar Tabs – Urban Dub

CD, Sheet music, Poster

Do you like Fallen On Deaf Ears 2? Share with your friends now
ChordsTabsTabs v2Tabs v3Tabs v4Tabs v5Ukulele
tuning: (Standard)EADGBe
 unang tab ko to. kung may angal kau sa tab ko email nyo ko..


Intro:
gtr.1
e-----------------------|
B-----------------------|
G--6666666666666--------|
D--0000000000000--------|
A-----------------------|
E-----------------------|

cont.
gtr.1                 2x                         2x                                2x
e------------------------- ------------------------       ---------------------------|
B------------------------- ------------------------       ---------------------------|
G----6--6-6--6--6-6------- ------------------------       ---------------------------|
D--00-00-0-00-00-0-------- --6666666-66-666666-66--       --6666666-66-666666-66-----|
A------------------------- --6666666-66-666666-66--       --6666666-66-666666-66-----|
E------------------------- --4444444-44-444444-44--       --4444444-44-444444-44-----|
                             .......    ......
gtr.2                 2x                            2x                            4x
e------------------------- ----------------------------   ---------------------------|
B------------------------- ----------------------------   ---------------------------|
G--44-66-222-444-66-2-111- --44-66-222-444-66-2--------   --44-66-222-444-6b-2/1b-1--|
D------------------------- ---------------------666----   ---------------------------|
A------------------------- ----------------------------   ---------------------------|
E------------------------- ----------------------------   ---------------------------|

verse 1:
gtr.1
e----------------------------------|
B----------------------------------|
G----------------------------------|
D--666666666666-6-66-6-6666-6-66---|
A--666666666666-6-66-6-6666-6-66---|
E--444444444444-4-44-4-4444-4-44---|

cont.
gtr.1                2x
e----------------------|
B----------------------|
G--66666666666-6-66-6--|
D--66666666666-6-66-6--|
A--44444444444-4-44-4--|
E----------------------|

gtr.2                     2x
e---------------------------|
B---------------------------|
G--44-66-222-444-66-2-111---|
D---------------------------|
A---------------------------|
E---------------------------|

Prechorus:
gtr.1 and 2
e--------------------------------------|
B--------------------------------------|
G--------------------------------------|
D--77777777-33333333-5555555-3333333---|
A--77777777-33333333-5555555-3333333---|
E--55555555-11111111-3333333-1111111---|

Chorus:
gtr.1                                      2x
e--------------------------------------------|
B--------------------------------------------|
G--555555555---------------------------------|
D--555555555-777777777-333333333-555555555---|
A--333333333-777777777-333333333-555555555---|
E------------555555555-111111111-333333333---|

gtr.2                                    3x
e------------------------------------------  ------------------------|
B------------------------------------------  ------------------------|
G--4-5-4-2-4-2----------------2h3-0--------  --4-5b-4-5b-4-5b-4-5b---|
D--------------33-22-55-3-2-3-------333----  ------------------------|
A------------------------------------------  ------------------------|
E------------------------------------------  ------------------------|


Intro:
gtr.1
e----------------------------------------------------------|
B----------------------------------------------------------|
G----------------------------------------------------------|
D--------------------------6-66----------------------2-4---|
A--------------------------6-66----------------------2-4---|
E--------------------------4-44----------------------0-2---|

gtr.2
e-----------------------------------------------------------|
B-----------------------------------------------------------|
G--44-66-22-444-66-2-111--------44-66-22-44-66-2-111--------|
D-----------------------------------------------------------|
A-----------------------------------------------------------|
E-----------------------------------------------------------|

cont.
gtr.2                     2x
e---------------------------|
B---------------------------|
G--44-66-22-444-66-2-111----|
D---------------------------|
A---------------------------|
E---------------------------|

repeat verse 1:

Prechorus:
gtr.1                                2x
e--------------------------------------|
B--------------------------------------|
G--------------------------------------|
D--77777777-33333333-5555555-3333333---|
A--77777777-33333333-5555555-3333333---|
E--55555555-11111111-3333333-1111111---|

gtr 2.
e---------------------------------------------------------------|
B---------------------------------------------------------------|
G--44444444444-22222222222/666-444-666/888888-666/888888-4444---|
D---------------------------------------------------------------|
A---------------------------------------------------------------|
E---------------------------------------------------------------|

Chorus:
gtr.1                                      2x
e-------------------------------------------- ------------------|
B-------------------------------------------- ------------------|
G--555555555--------------------------------- ------------------|
D--555555555-777777777-333333333-555555555--- --55555555555-----|
A--333333333-777777777-333333333-555555555--- --55555555555-----|
E------------555555555-111111111-333333333--- --33333333333-----|

gtr.2                                    3x                        2x
e------------------------------------------  ------------------------|
B------------------------------------------  ------------------------|
G--4-5-4-2-4-2----------------2h3-0--------  ------------------------|
D--------------33-22-55-3-2-3-------333----  --4-5b-4-5b-4-5b-4-5b---|
A------------------------------------------  ------------------------|
E------------------------------------------  ------------------------|

bridge:
gtr.1 and 2
e----------------------------------------------------------|
B----------------------------------------------------------|
G--6-6-6-6-6-6-6-4-4-4-4-4-4-8-8-8-8-8-8-8-6-6-6-6-6-6-6---|
D--x-x-x-x-x-x-x-x-x-x-x-x-x-x-x-x-x-x-x-x-x-x-x-x-x-x-x---|
A--4-4-4-4-4-4-4-2-2-2-2-2-2-6-6-6-6-6-6-6-4-4-4-4-4-4-4---|
E----------------------------------------------------------|

cont.
gtr.1
e--------------------------------------------|
B--------------------------------------------|
G--------------------------------------------|
D--6-666666-6-66666666-----------------------|
A--6-666666-6-66666666-----------------------|
E--4-444444-4-44444444-----------------------|
     ......   ........

Outro:
gtr.1                   2x
e---------------------------------------------|
B---------------------------------------------|
G----6--6-6--6--6-6---------------------------|
D--00-00-0-00-00-0----------------------------|
A---------------------------------------------|
E---------------------------------------------|

gtr.2                     2x
e---------------------------------------------|
B---------------------------------------------|
G--44-66-222-444-66-2-111---------------------|
D---------------------------------------------|
A---------------------------------------------|
E---------------------------------------------|

cont.
gtr.1
e---------------------------------------------|
B---------------------------------------------|
G--666666666666666666666----------------------|
D--000000000000000000000----------------------|
A---------------------------------------------|
E---------------------------------------------|

gtr.2
e---------------------------------------------|
B---------------------------------------------|
G--4-6-2-4-6-2b-------------------------------|
D---------------------------------------------|
A---------------------------------------------|
E---------------------------------------------|





Comments


Popular Urban Dub tabs & chords
The Fight Is Over Bass Tabs
A Method To Chaos Chords
A New Tattoo 1 Tabs
Fallen On Deaf Ears 1 Tabs
Gravity Tabs
Guillotine 3 Tabs
Soul Searching 2 Tabs
Soul Searching 5 Tabs
Soul Searching 6 Tabs
Would You Go Ukulele


Song lyrics



↑ Back to top | Tablatures and chords are parodies/interpretations of the original songs. You may use it for private study, scholarship, research or language learning purposes only
© 2014 AZChords.com Contact us | Privacy policy | DMCA | Add/correct tabs | Request tabs | Top 50 tabs