» » »

Urban Dub, Fallen On Deaf Ears Tabs (ver.2)

Artists:  A B C D E F G H I J K L M N O P Q R S T U V W X Y Z # 

Fallen On Deaf Ears Tabs (ver.2)

Urban Dub Tabs
Rating:
0/5 (0 votes)
Fallen On Deaf Ears lessons Tabs too difficult? Try these video lessons and learn fast
                urbandub
fallen on deaf ears
standard tuning

intro:

guitar 1
|-----------------| |--------------------|
|-----------------| |-----8-----8---8----|
|-8-8-8-8-8-8-8-8-| |--------------------|
|-6-6-6-6-6-6-6-6-| |-6-6---6-6---6------|
|-----------------| |--------------------|
|-----------------| |--------------------|
                    <-----4x------------->

|----------|----------------|----------------|---------|
|----------|----------------|----------------|---------|
|-5*-------|----------3h5p3-|---------3h5p3--|---------|
|-5*-(32x)-|--6-------------|--6-------------|-3-------|
|-3*-------|--6-(13x)-------|--6-(13x)-------|-3-(32x)-|
|----------|--4-------------|--4-------------|-1-------|

guitar II
|--------------------------------|
|--------------------------------|
|-33--66--111----33--66--11111---| repeat till needed
|--------------------------------|
|--------------------------------|
|--------------------------------|

verse (twice)

guitar I                guitar II   (2x)
|---------------------|--------------------------------|
|---------------------|--------------------------------|
|------------10-------|-33--66--111----33--66--11111---|
|-6-(32x)----10-(32x)-|--------------------------------|
|------------8--------|--------------------------------|
|---------------------|--------------------------------|

pre-chorus
|----------------------------|
|----------------------------|
|--5*---------6*-------------|
|--5*-(16x)---6*-(16x)-------|
|--3*---------4*-------------|
|----------------------------|

chorus:

guitar I:
|---------------|----------------|---------|---------|
|---------------|----------------|---------|---------|
|---------3h5p3-|---------1h2p1--|-6-------|-3-------|
|-6-------------|-3--------------|-6-(16x)-|-3-(16x)-|
|-6-(13x)-------|-3-(13x)--------|-4-------|-1-------|
|-4-------------|-1--------------|---------|---------|

guitar II: 
           Ab5, F5, C#5, Bb5

solo:

guitar I:
|----------------------------------------|
|--8h9p8---------------------------------|
|--------8-10------------------8h10------| 3x  THEN
|-------------8h10p9------8h10-----------|
|--------------------9-11----------------|
|----------------------------------------|

|-----------------------|
|-8h9--8h9--8h9--8h9----|
|-----------------------|
|-----------------------|
|-----------------------|
|-----------------------|


guitar II: 
           Ab5, F5, C#5, Bb5  

pre-verse:
|---------------------------------|
|---------------------------------|
|---------------------------------|
|-6~---5--66------3---------------|
|-6~---5--66------3-(32x)---------|
|-4~---3--44------1---------------|


repeat verse: (twice)

2nd pre-chorus:
|-----------|------------|---------|---------|-------------|
|-----------|------------|---------|---------|-------------|
|-5*--------|--6*--------|---------|-6-------|--5----------|
|-5*--(16x)-|--6*--(16x)-|-6-------|-6-(16x)-|--5-(16x)----|
|-3*--------|--4*--------|-6-(16x)-|-4-------|--3----------|
|-----------|------------|-4-------|---------|-------------|

|---------------------------------|
|---------------------------------|
|-6-/--8--/--10-/--12--/--13------|
|-x-/--x--/--x--/--x---/--x-------|
|-4-/--6--/--8--/--10--/--11------|
|---------------------------------|


repeat chorus twice
fill the solo on the second time around!


kayo na bahala sa outro!
            

comments powered by Disqus
↑ Back to top | Urban Dub Tabs for Fallen On Deaf Ears. Lyrics for acoustic guitar and electric guitar. Tablatures and chords are parodies/interpretations of the original songs. You may use it for private study, scholarship, research or language learning purposes only