>
 >
Fallen On Deaf Ears

Fallen On Deaf Ears Guitar Tabs

Urban Dub - Fallen On Deaf Ears chords, tabs, tablatures, lyrics

Guitar lessons | Add/correct | Request | Top 50 tabs Artists:  A B C D E F G H I J K L M N O P Q R S T U V W X Y Z 0-9

Fallen On Deaf Ears Guitar Tabs – Urban Dub

CD, Sheet music, Poster

Do you like Fallen On Deaf Ears? Share with your friends now
ChordsTabsTabs v2Tabs v3Tabs v4Tabs v5Ukulele
Band: Urban Dub


i dedicate this work to: first of all to harold aka tatay-bro who's learning
                         how to play the guitar from the master herself:
                                              me!!!
                         whahahahahaha!!! also to my best pals jozen,
                         nacky, tine c. and zenadie. you guyz rock!!!
                                         \m/(+_0)\m/

i hope you peepz have fun with this song!!!


ATTENTION:
makinig din kau sa CD para sa tamang strumming ha!!! whahahahaha.... =)
guitar1=more on leads
guitar2=more on rhythm
Standard tuning for both guitars


INTRO

=Guitar 2=

----------------------------------------------|
----------------------------------------------|
9-9-9-9-9-9-9-9-9-9-9-9-9-9-9-9-9-9-9-9-9-9---|
7-7-7-7-7-7-7-7-7-7-7-7-7-7-7-7-7-7-7-7-7-7---|
----------------------------------------------|
----------------------------------------------|

=Guitar 1=

----------------------------------------------|
----------------------------------------------|
----------------------------------------------|  gt.1 keeps playing this
9-9-11-11-7-7-7-9-9-11-11-8-8-8-8-8-----------|        until verse
----------------------------------------------|
----------------------------------------------|


=Guitar 2=

----------------------------------------|
----------------------------------------|
----------------------------------------|
666666666666666-7-666666666666666-7-----|
666666666666666-7-666666666666666-7-----|
----------------------------------------|

----------------     -------------  ----------------     -------------|
----------------     -------------  ----------------     -------------|
----------------     -------------  ----------------     -------------|
7-7-7-7-7-7-7---     --9h11-9s7---  7-7-7-7-7-7-7---     --9h11-9s4---|
7-7-7-7-7-7-7--- 2x  -------------  7-7-7-7-7-7-7--- 2x  -------------|
5-5-5-5-5-5-5---     -------------  5-5-5-5-5-5-5---     -------------|

-----------------------------------|
-----------------------------------|
-----------------------------------|
4-4-4-4-4-4-4-4-4-4-4-4-4-4-4-4----|
4-4-4-4-4-4-4-4-4-4-4-4-4-4-4-4----|
2-2-2-2-2-2-2-2-2-2-2-2-4-4-4-4----|


VERSE


=Guitar 2=

----------------------------------------------|
----------------------------------------------|
----------------------------------------------|
6-6-6-6-6-6-6-6-6-6-6-6-6-6-6--7--------------|
7-7-7-7-7-7-7-7-7-7-7-7-7-7-7--7--------------|
5-5-5-5-5-5-5-5-5-5-5-5-5-5-5--5--------------|

=Guitar 2=

----------------------------------------------|
----------------------------------------------|
----------------------------------------------|
444444--444444444444444--444444444------------|
444444--444444444444444--444444444------------|
222222--222222222222222--222222222------------|

^^^^^while gt.2 plays this part, gt.1 plays this:

----------------------------------------------|
----------------------------------------------|
----------------------------------------------|
9-9-11-11-7-7-7-9-9-11-11-6-6-6-6-6-----------|
----------------------------------------------|
----------------------------------------------|


BRDIDGE 1

=Guitar 1=

------------------------------------------------------------------------|
------------------------------------------------------------------------|
------------------------------------------------------------------------|
------------------------------------------------------------------------|
11-11-11-11-11-11-11-11-11-11-11-11-12-12-12-12-12-12-12-12-12-12-12-12-|
------------------------------------------------------------------------|
(makinig ng mabuti sa part na ito)

=Guitar 2=

-------------------      ---------------------|
-------------------      ---------------------|
-------------------      ---------------------|
6-6-6-6-6-6-6-6----      --7-7-7-7-7-7-7-7----|
6-6-6-6-6-6-6-6---- 2x   --7-7-7-7-7-7-7-7----| 2x
4-4-4-4-4-4-4-4----      --5-5-5-5-5-5-5-5----|


CHORUS

=Guitar 2=

-------------------|
-------------------|
-------------------|
7-7-7-7-7-7-7-7----|
7-7-7-7-7-7-7-7----| 2x
5-5-5-5-5-5-5-5----|

=Guitar 1=

-------------------|
-------------------|
-------------------|
9h11--9s7----------|
-------------------|
-------------------|

=Guitar 2=

-----------------------------|
-----------------------------|
-----------------------------|
--11-11-11-11-11-11-11-11----|
--11-11-11-11-11-11-11-11----| 2x
--9 -9-  9-9-  9- 9- 9- 9----|

=Guitar 1=

------------------|
------------------|
------------------|
6h7-6s4-----------|
------------------|
------------------|

=Guitar 2=

---------------------------     ---------------------|
---------------------------     ---------------------|
---------------------------     ---------------------|
12-12-12-12-12-12-12-12----     --9-9-9-9-9-9-9-9----|
12-12-12-12-12-12-12-12---- 2x  --9-9-9-9-9-9-9-9----| 2x
10-10-10-10-10-10-10-10----     --7-7-7-7-7-7-7-7----|


*gt.2 plays the same chords again while gt.1 plays this:

=Guitar 1=

------------------------------------    ----------|
9h10p9------------------------------    ---9h10---|
------9-11------------------9s11---- 3x ----------| 5x
-----------7-9-11-9-7-9-9s11--------    ----------|
------------------------------------    ----------|
------------------------------------    ----------|

(before you start playing the chords for the verse, iplay nio muna ito)

=Guitar 1=

---------------------------------------|
---------------------------------------|
---------------------------------------|  play 4xs before the
9-9-11-11-7-7-7-9-9-11-11-8-8-8-8-8----|   2nd verse starts
---------------------------------------|
---------------------------------------|

=Guitar 2=
---------------------------------------|
---------------------------------------|
---------------------------------------|
6--7-7--7-4-4-4-4-4-4-4-4-4-4-4-4-4-4--|
6--7-7--7-4-4-4-4-4-4-4-4-4-4-4-4-4-4--|
4--5-5--5-2-2-2-2-2-2-2-2-2-2-2-2-2-2--|


***play the verse chords again***

BRIDGE 2

=Guitar 1=

------------------------------------------------------------------------|
------------------------------------------------------------------------|
------------------------------------------------------------------------|
------------------------------------------------------------------------|
11-11-11-11-11-11-11-11-11-11-11-11-12-12-12-12-12-12-12-12-12-12-12-12-|
------------------------------------------------------------------------|
(makinig ng mabuti sa part na ito)


=Guitar 2=

-------------------      ---------------------|
-------------------      ---------------------|
-------------------      ---------------------|
6-6-6-6-6-6-6-6----      --7-7-7-7-7-7-7-7----|
6-6-6-6-6-6-6-6---- 2x   --7-7-7-7-7-7-7-7----| 2x
4-4-4-4-4-4-4-4----      --5-5-5-5-5-5-5-5----|

*ito po ang chords para sa gt.2 sa bridge 2-mahirap masyado kapag ittab ko
pa sila eh kaya use this as a guideline ok?! ska makining kau sa CD para
malaman nio kung ilang beses siya isstrum.piz!*

----------------------------------------------------|
----------------------------------------------------|
----------------------------------------------------|
9-9-9-9-9-9-11-11-11-11-11-11-9-9-9-11-11-11-11-11--|
9-9-9-9-9-9-11-11-11-11-11-11-9-9-9-11-11-11-11-11--|
7-7-7-7-7-7-9 -9 -9 -9 -9 -9 -7-7-7-9 -9 -9 -9 -9 --

*near the end of the song, you're still gonna use the CHORUS chords pero iba na yung 
gawin nio po ito as a guideline:*

=Guitars 1 & 2=

-----------------------------------------------------------------------|
-----------------------------------------------------------------------|
-----------------------------------------------------------------------|
7-7-7-7-7-7-7-11-11-11-11-11-11-12-12-12-12-12-12-12-9-9-9-9-9-9-9-9-9-|
7-7-7-7-7-7-7-11-11-11-11-11-11-12-12-12-12-12-12-12-9-9-9-9-9-9-9-9-9-|
5-5-5-5-5-5-5-9 -9 -9 -9 -9 -9 -10-10-10-10-10-10-10-7-7-7-7-7-7-7-7-7-


OUTRO

=Guitar 1=

------------------------------------     -----------------|
------------------------------------     -----------------|
------------------------------------     -----------------|
9-9-11-11-7-7-7-9-9-11-11-6-6-6-6-6- 2x  --9-11-7-9-11-6--|
------------------------------------     -----------------|
------------------------------------     -----------------|

=Guitar 2=

----------------------------------------------|
----------------------------------------------|
9-9-9-9-9-9-9-9-9-9-9-9-9-9-9-9-9-9-9-9-9-9---|  keep playing this until
7-7-7-7-7-7-7-7-7-7-7-7-7-7-7-7-7-7-7-7-7-7---|          the end
----------------------------------------------|
----------------------------------------------|





Comments


Popular Urban Dub tabs & chords
Evidence Bass Tabs
Home Chords
Run Away Chords
The Apparition Chords
The Fight Is Over 1 Chords
The Fight Is Over 2 Chords
Would You Go Chords
Evidence 2 Tabs
Gone Tabs
Endless A Silent Whisper Ukulele


Song lyrics



↑ Back to top | Tablatures and chords are parodies/interpretations of the original songs. You may use it for private study, scholarship, research or language learning purposes only
© 2014 AZChords.com Contact us | Privacy policy | DMCA | Add/correct tabs | Request tabs | Top 50 tabs