» » »

Cebuana Tabs (ver.1)

Artists:  A B C D E F G H I J K L M N O P Q R S T U V W X Y Z # 

Cebuana Tabs (ver.1)

Urban Dub
Rating:
5/5 (2 votes)

Hard to play? Try these video lessons and learn fast.
                by
Cp #-09283150081
SHC(BSN) Lucena

cont=continued(tuloy-tuloy lang)
~-let ring-
h-hammer on
p-pull off
(((#)))-effects
/-slide
 
Cebuana Tab by Urban Dub :  GtrI-( eb bb gb db Ab Eb)    
GtrII-( eb bb gb db Ab Eb) 

Intro- 
1.
|-7-7-7-7-7-7-7-7-7-7-7-7-7-7-7-|
|-7-7-7-7-7-7-7-7-7-7-7-7-7-7-7-| 
|-7-7-7-7-7-7-7-7-7-7-7-7-7-7-7-|
|-9-9-9-9-9-9-9-9-9-9-9-9-9-9-9-|
|-x-x-x-x-x-x-x-x-x-x-x-x-x-x-x-|  
|-------------------------------| 
2.
GtrI
|--x---x---x-----x---x---x----x---x---x-----x---x---x--------| 
|--x---x---x-----x---x---x----x---x---x-----x---x---x--------|
|--7p6-7p6-7p6---7p6-7p6-7p6--7p6-7p6-7p6---7p6-7p6-7p6------| 
|--9---9---9-----9---9---9----9---9---9-----9---9---9--------|2x 
|--x---x---x-----x---x---x----x---x---x-----x---x---x--------| 
|------------------------------------------------------------|

GtrII
|------------------------------------------------------------| 
|-/12-------7h8-7~-----------12-\-----7h8-7~-10~-10-10/8-8-8-|
|-------7h9-------999p7h999~------7h9------------------------|
|------------------------------------------------------------| 
|------------------------------------------------------------|
|------------------------------------------------------------| 
 
|------------------------------------------------------------|
|-/12-\-----7h8-7~-----------777~-888--101010~-121212~-------|
|-------7h9-------999p7h999~---------------------------------|
|------------------------------------------------------------|
|------------------------------------------------------------|
|------------------------------------------------------------| 

   Verse-
GtrI  -Bm Em2x
hazel....               aawaken...me...   
|-7-7-7-7-7-7-7-7-7-7-7-7-7-7-7-|-7-7-7-7-7-7-7-7-7-7-7-7-7-7-7---|
|-7-7-7-7-7-7-7-7-7-7-7-7-7-7-7-|-8-8-8-8-8-8-8-8-8-8-8-8-8-8-8---|  
|-7-7-7-7-7-7-7-7-7-7-7-7-7-7-7-|-7-7-7-7-7-7-7-7-7-7-7-7-7-7-7---|
|-9-9-9-9-9-9-9-9-9-9-9-9-9-9-9-|-9-9-9-9-9-9-9-9-9-9-9-9-9-9-9---|2x
|-x-x-x-x-x-x-x-x-x-x-x-x-x-x-x-|-x-x-x-x-x-x-x-x-x-x-x-x-x-x-x---|  
|-------------------------------|---------------------------------|   
     
Refrain  -G F#m  G Gm
been wasting...
GtrI
|-3-3-3-3-3-3-3-3-3-3-3--|-2-2-2-2-2-2-2-2-2-2-2-|-3-3-3-3-3-3-3-3-3~-----| 
|-3-3-3-3-3-3-3-3-3-3-3--|-2-2-2-2-2-2-2-2-2-2-2-|-3-3-3-3-3-3-3-3-3~-----|
|-4-4-4-4-4-4-4-4-4-4-4--|-2-2-2-2-2-2-2-2-2-2-2-|-4-4-4-4-4-4-4-4-3~-----|
|-5-5-5-5-5-5-5-5-5-5-5--|-4-4-4-4-4-4-4-4-4-4-4-|-5-5-5-5-5-5-5-5-5~-----|
|-5-5-5-5-5-5-5-5-5-5-5--|-4-4-4-4-4-4-4-4-4-4-4-|-5-5-5-5-5-5-5-5-5~-----|
|-3-3-3-3-3-3-3-3-3-3-3--|-2-2-2-2-2-2-2-2-2-2-2-|-3-3-3-3-3-3-3-3-3~-----|
GtrII
|------------------------|-----------------------|-----------------------|
|-------10---------10----|-----------------------|-----10---------11~----|
|----------10--------10--|------9-----------9----|--------10------12~----|
|----12---------12-------|---7----7-----7-----7--|---12-----------12~----|
|-10----------10---------|-9---9------9---9------|-10-------------10~----|
|------------------------|-----------------------|-----------------------|
  
  Interlude- Bm 2x   
GtrI
|--x---x---x-----x---x---x----x---x---x-----x---x---x--------| 
|--x---x---x-----x---x---x----x---x---x-----x---x---x--------|
|--7p6-7p6-7p6---7p6-7p6-7p6--7p6-7p6-7p6---7p6-7p6-7p6------| 
|--9---9---9-----9---9---9----9---9---9-----9---9---9--------|2x 
|--9---9---9-----9---9---9----9---9---9-----9---9---9--------|
|------------------------------------------------------------| 

GtrII
|--------------------------------------------------------------------------|
|-/12-\----7h8-7~-----------8888~-7777~-----------10101010~-8888~-7777-----|
|------7h9-------999p7h999~------------9999~-7777~--------------------9999-|
|--------------------------------------------------------------------------|
|--------------------------------------------------------------------------|
|--------------------------------------------------------------------------|

|---------------------------------|
--777~-888--101010~-121212~-------|
|---------------------------------|
|---------------------------------|
|---------------------------------| 
|---------------------------------|
 
Verse
GtrI Do Verse
 
GtrII
hazel eyes...     once...                again...    a second....
|---------------|-7~----7~--------------|-----------|-------------|
|---------------|-8~----8~--------------|-----------|-------------| 
|---------------|-9~----9~--------------|-----------|----9-/-11-9-|
|-9~------------|-9-----9---------------|-9~--------|-9~-x-/-x--x-|
|-----7~-/-9~---|---7~-------7~-/------ |----7~-/-9~|----7-/-9--7-|
|---------------|-----------------------|-----------|-------------|

refrain -
You played your part

GtrI-do refrain
GtrII
|------------------------|-----------------------|---------------------|
|------------------------|-----------------------|---------------------|
|-12~-14~---12~--14~-----|-12~-14~---12~--14~----|-12~-14~---/--17~----|
|-x-s-x--s--x-s--x-------|-x-s-x---s-x--s-x------|-x-s-x--------x~-----|
|-10~-12~---10~--12~-----|-10~-12~---10~--12~----|-10~-12~---/--15~----|
|------------------------|-----------------------|---------------------|  



Chorus-Under southern lights...

1. 
GtrI&II
  |-------------------------------------------|  
  |-------------------------------------------|
  |-7-7-7-7-7-7-7-7-7-7-4-4-4-4-4-4-4-4-4-----|
  |-7-7-7-7-7-7-7-7-7-7-4-4-4-4-4-4-4-4-4-----|2X
  |-5-5-5-5-5-5-5-5-5-5-2-2-2-2-2-2-2-2-2-----|
  |-------------------------------------------|

2.
Under southern lights...
GtrI
  |-------------------------------------------|
  |-------------------------------------------|
  |-7-7-7-7-7-7-7-7-7-7-4-4-4-4-4-4-4-4-4-----|
  |-7-7-7-7-7-7-7-7-7-7-4-4-4-4-4-4-4-4-4-----|2X
  |-5-5-5-5-5-5-5-5-5-5-2-2-2-2-2-2-2-2-2-----|
  |-------------------------------------------|
 
     GtrII                                  ..........stay....
  |-------------------------------------------|
  |-/12~12~12~12~-----8~8~-777777777~---------|
  |--------------7~-7~----------------7-7-----|
  |-------------------------------------------|
  |-------------------------------------------|
  |-------------------------------------------|

      Intelude- 
GtrI
  |-------------------------------------------|
  |-------------------------------------------|
  |-4-4-4-4-4-4-4-4-4-------------------------|
  |-4-4-4-4-4-4-4-4-4-5-5-5-5-5-5-5-5-5-5-5---|2X
  |-2-2-2-2-2-2-2-2-2-5-5-5-5-5-5-5-5-5-5-5---|
  |-------------------3-3-3-3-3-3-3-3-3-3-3---|
GtrII
  |----------------------------------|
  |----------------------------------|
  |----------------------------------|cont...
  |--7h9p7h9-------------------------|
  |---------7h9-------7h9------------|
  |-----------7h10-------------------|
Verse-
yeah..you have awaken me

Gtr I @II           
  |-------------------------------------------|
  |-------------------------------------------|
  |-4-4-4-4-4-4-4-4-4-9-9-9-9-9-9-9-9-9-9-9---| 
  |-4-4-4-4-4-4-4-4-4-9-9-9-9-9-9-9-9-9-9-9---|
  |-2-2-2-2-2-2-2-2-2-7-7-7-7-7-7-7-7-7-7-7---|
  |-------------------------------------------|



Refrain-
wasting away..             close...
|------------------------|-----------------------|
|------------------------|-----------------------|
|-12~-14~---12~--14~-----|-11~-14~----11~-14~----|
|-x----x----x----x-------|-x---x------x---x------|
|-10~-12~---10~--12~-----|-9~--12~----9~--12~----|
|------------------------|-----------------------|
you played...             melted.........         
|------------------------|-----------------------|-----------------------|
|-------10---------10----|-----------------------|-----10---------11~----|
|----------10--------10--|------9-----------9----|--------10------12~----|
|----12---------12-------|---7----7-----7-----7--|---12-----------12~----|
|-10----------10---------|-9---9------9---9------|-10-------------10~----|
|------------------------|-----------------------|-----------------------|

      Bridge-
Under southern lights the mood is right...stay...
  GtrII
  |--5-------5------5-------5------5----------|
  |----5-------5------5-------5------5--------|
  |------7-------7-----7-------7------7-------|
  |-------------------------------------------|
  |-------------------------------------------|
  |-------------------------------------------|

    Then do Chorus-
Under southern lights the mood is right....
 GtrI 
  |-------------------------------------------| 
  |-------------------------------------------|
  |-7-7-7-7-7-7-7-7-7-7-4-4-4-4-4-4-4-4-4-----|
  |-7-7-7-7-7-7-7-7-7-7-4-4-4-4-4-4-4-4-4-----|2X
  |-5-5-5-5-5-5-5-5-5-5-2-2-2-2-2-2-2-2-2-----|
  |-------------------------------------------|    

  GtrII
  |-------------------------------------------|
  |-/12~12~12~12~-----8~8~-777777777~---------|
  |--------------7~-7~----------------7-7-----|
  |-------------------------------------------|
  |-------------------------------------------|
  |-------------------------------------------|

    Outro-
Stay with me
Stay, stay, stay with me
Stay with me 
 GtrI
  |-------------------------------------------|
  |-------------------------------------------|
  |-4-4-4-4-4-4-4-4-4-------------------------| 
  |-4-4-4-4-4-4-4-4-4-5-5-5-5-5-5-5-5-5-5-5---|
  |-2-2-2-2-2-2-2-2-2-5-5-5-5-5-5-5-5-5-5-5---|
  |-------------------3-3-3-3-3-3-3-3-3-3-3---|

GtrII
  |----------------------------------|
  |----------------------------------|
  |----------------------------------|cont...
  |--7h9p7h9-------------------------|
  |---------7h9-------7h9------------|
  |-----------7h10-------------------|

Outro-
GtrI
  |-------------------------------------------|
  |-------------------------------------------|
  |-4-4-4-4-4-4-4-4-4-------------------------| 
  |-4-4-4-4-4-4-4-4-4-5-5-5-5-5-5-5-5-5-5-5---|
  |-2-2-2-2-2-2-2-2-2-5-5-5-5-5-5-5-5-5-5-5---|
  |-------------------3-3-3-3-3-3-3-3-3-3-3---|
GrtII
  |------------------------------------------------------------|
  |------------------------------------------------------------|
  |-7p6--9p7----7p6--9p7----7p6--9p7----7p6--9p7---7p6--9p7----| 
  |----7-----------7-----------7-----------7----------7--------|
  |------------------------------------------------------------|
  |------------------------------------------------------------| 

       Last
GtrI
  |-------------------------------------------|
  |-------------------------------------------|
  |-6------9-10--6------9-10---6------9-10----|cont...
  |---7~-7---------7~-7----------7~-7---------|
  |-------------------------------------------|
  |-------------------------------------------|
 GtrII
  |------------------------------------------------------------|
  |-/12-\-----7h8-7~-----------12-\-----7h8-7~-10~-10-10/8-8-8-|
  |-------7h9-------999p7h999~------7h9------------------------|
  |------------------------------------------------------------|
  |------------------------------------------------------------|
  |------------------------------------------------------------|  

end with "A" chord

Hazel eyes
You have awakened me Opened my mind
Never thought love could come
A second time
Been wasting away
Killing myself
Closed all my doors
I wasn't the same anymore
Then you came along
Hazel eyes
Speak to me once more
You're words are a comfort
Discovered again that love could come
A second time
You played your part
Helped me restart
Mended these wounds
That once was tearing my heart
You came along
Under southern lights the mood is right
We move in closer together
Your lips press tight against mine
Stay with me
Under southern lights the mood is right
We move in closer together
Your lips press tight against mine
Stay, Stay, Stay,

You have awakened me Opened my mind
Never thought love could come
A second time
Been wasting away
Killing myself
Closed all my doors
I wasn't the same
You played your part
Helped me restart
Mended these wounds
That once was tearing my heart
Under southern lights the mood is right
We move in closer together
Your lips press tight against mine
Stay with me
Under southern lights the mood is right
We move in closer together
Your lips press tight against mine
Stay, Stay, Stay,

Stay with me
Stay, stay, stay with me
Stay with me 

       
            
Hard to play? Try these video lessons and learn fast. | Correct




comments powered by Disqus
↑ Back to top | Tablatures and chords are parodies/interpretations of the original songs. You may use it for private study, scholarship, research or language learning purposes only