>
 >
Anthem

Anthem Bass Tabs

Urban Dub - Anthem chords, tabs, tablatures, lyrics

Guitar lessons | Add/correct | Request | Top 50 tabs Artists:  A B C D E F G H I J K L M N O P Q R S T U V W X Y Z 0-9

Anthem Bass Tabs – Urban Dub

CD, Sheet music, Poster

Do you like Anthem? Share with your friends now
Bass TabsBass Tabs v2Tabs



one great song from Urbandub!

'di ako 100% sure na perfect 'to...kayo na bahala kumapa ^^

first tab ko 'to...hehe paki rate lang po...




TUNING: Drop C#  a.k.a  Drop Db



INTRO:(Wait for Timing!)

Gb|--------------------------------------|
Db|--------------------------------------|
Ab|----------5-5-4h5--------7777-999-----|
Db|-5555-5-5-----------0-----------------|


Gb|--------------------------------------|
Db|--------------------------------------|
Ab|----------5-5-4h5--------7777-999-----|
Db|-5555-5-5-----------0-----------------|


Gb|--------------------------------------|
Db|--------------------------------------|
Ab|-----------------5-5555555--7777-999--|
Db|-5-55555555555555---------------------|


Gb|--------------------------------------|
Db|--------------------------------------|
Ab|-----------------5-5555555--7777-999--|
Db|-5-55555555555555---------------------|


Gb|--------------------------------------|
Db|--------------------------------------|
Ab|--------------------------------------|
Db|-5-5555x5-----------------------------|


VERSE 1:(Wait for Timing!)

Gb|--------------------------------------|
Db|--------------------------------------|
Ab|--------------------------------------|
Db|-9-9-99--7-7-77--5-5555-5-5-5-55------|


Gb|----------------------------------------------------|
Db|----------------------------------------------------|
Ab|----------------------------------------------------|
Db|-0--5-555-5-555--5\9-9-99--7-7-77--5-5555-5-5-5-55--|


Gb|---------||
Db|------7--||(Pwede n'yong i-add ang part na 'to bago mag refrain...pakinggan n'yo lang 
para ma-timing)
Ab|--4h5----||(sa lead guitar ang part na yan pero dinagdag ko sa bass...pampa jam lang ^^)
Db|---------||


REFRAIN:

Gb|--------------------------------------|
Db|--------------------------------------|
Ab|--------------------------------------|
Db|-9-99999999999999--5-55555555555555---|


Gb|------------------------------------------------------|
Db|------------------------------------------------------|
Ab|------------------------------\10-10-10-10-10-10-10/--|
Db|-9-99999999999999--5-5555555--------------------------|


CHORUS:

Gb|--------------------------------------|
Db|--------------------------------------|
Ab|--------------------------------------|
Db|-000000000000---555555555555----------|


Gb|----------------------------------------------------------------|
Db|----------------------------------------------------------------|
Ab|----------------------------------------------------------------|
Db|-9-9-99---7-7-77---555-xxxxxxx-5-xx-5-xx-555-xxxxxxx-5-xx-5-xx--|

REPEAT INTRO:

VERSE 2:

Gb|----------------------------------------------------------------|
Db|----------------------------------------------------------------|
Ab|--------------------------9-7-5----7-5-4----77-99--55-77-99-----|
Db|-55---55---55---55---5\99-------77-------55---------------------|


Gb|----------------------------------------------------------------|
Db|----------------------------------------------------------------|
Ab|-------77-99--55-77-99-------9-7-5----7-5-4----77-99--55-77-99--|
Db|-5--55-----------------5--99-------77-------55------------------|

REFRAIN 2:

Gb|--------------------------------------|
Db|--------------------------------------|
Ab|--------------------------------------|
Db|-9-99999999999999--5-55555555555555---|


Gb|--------------------------------------|
Db|--------------------------------------|
Ab|--------------------------------------|
Db|-9-9999999-9-9------5-5-5-5-----------|

CHORUS 2:

Gb|--------------------------------------|
Db|--------------------------------------|
Ab|--------------------------------------|
Db|-000000000000---555555555555----------|


Gb|---------------------------------------------------------------|
Db|---------------------------------------------------------------|
Ab|---------------------------------------------------------------|
Db|-9-9-99---7-7-77---555-xxxxxxxxxxxxxxx-555-xxxxxxxxxxxxxx-5----|


Gb|--------------------------------------|
Db|--------------------------------------|
Ab|--------------------------------------|
Db|-0--------0--------5--------5---------|

BRIDGE:

Gb|-------11-------11-------11-------11-------11--|
Db|-12h14----12h14----12h14----12h14----12h14-----|
Ab|-----------------------------------------------|
Db|-----------------------------------------------|


Gb|-------11-------11-------11-------11-------11--|
Db|-12h14----12h14----12h14----12h14----12h14-----|
Ab|-----------------------------------------------|
Db|-----------------------------------------------|


Gb|-------------------------------------------10--|
Db|-------12-------12-------12-------12-----------|
Ab|-10h12----10h12----10h12----10h12----10h12-----|
Db|-----------------------------------------------|


Gb|-----------------------------------------------|
Db|-------12-------12-------12-------12-------12--|
Ab|-10h12----10h12----10h12----10h12----10h12-----|

Db|-----------------------------------------------|


Gb|-------11-------11-------11-------11-------11--|
Db|-12h14----12h14----12h14----12h14----12h14-----|
Ab|-----------------------------------------------|
Db|-----------------------------------------------|


Gb|-------11-------11-------11-------11-------11--|
Db|-12h14----12h14----12h14----12h14----12h14-----|
Ab|-----------------------------------------------|
Db|-----------------------------------------------|


Gb|-----------------------------------------------|
Db|-------16-------16-------16-------16-------16--|
Ab|-14h16----14h16----14h16----14h16----14h16-----|
Db|-----------------------------------------------|


Gb|-----------------------------------------------|
Db|-------14-------14-------14-------14-------14--|
Ab|-12h14----12h14----12h14----12h14----12h14-----|
Db|-----------------------------------------------|


Gb|-----------------------------------------------|
Db|-----------------------------------------------|
Ab|-----------------------------------------------|
Db|-555555>>> all the way ^^------------0---------|


CHORUS 3: (Wait for Timing!)

Gb|-----------------------------------------------|
Db|-----------------------------------------------|
Ab|-----------------------------------------------|
Db|-555555555555---9-9-99--7-7-77--5-555555555555-|


Gb|----------------------------------------------------------------|
Db|----------------------------------------------------------------|
Ab|----------------------------------------------------------------|
Db|-000000000000--555555555555--9-9-99--7-7-77--5-555-55-55-55-55--|


Gb|-----------------------------------------------|
Db|-----------------------------------7-----------|
Ab|--------99-77-55---------99-77-5h7----5--------|
Db|-5-555------------5-555---------------0--------|

-END

yun lang po SALAMAT! ^^





Comments


Popular Urban Dub tabs & chords
A New Tatoo 1 Chords
First Of Summer 2 Chords
Run Away Chords
Boy Tabs
Breakdown Tabs
Guillotine Tabs
Run Away 3 Tabs
Sailin Tabs
Good Morning Bones Ukulele
Stars And The Sun Ukulele


Song lyrics



↑ Back to top | Tablatures and chords are parodies/interpretations of the original songs. You may use it for private study, scholarship, research or language learning purposes only
© 2014 AZChords.com Contact us | Privacy policy | DMCA | Add/correct tabs | Request tabs | Top 50 tabs