» » »

Up The Anty, Untitled # Tabs (ver.2)

Artists:  A B C D E F G H I J K L M N O P Q R S T U V W X Y Z # 

Untitled # Tabs (ver.2)

Up The Anty Tabs
 Rating:
4/5 (4 votes)
Untitled # lessons Tabs too difficult? Try these video lessons and learn fast
                untitled #2
submitted by bomberman86


intro/verse-clean
e----0-----0-----0-----0----
B---2-2---2-2---2-2---2-2---
G--2---2-2---2-1---1-1---1--     X4
D-2-----2-----2-----2-------
A---------------------------
E---------------------------

pre chorus-distortion
e--000000000000-000000000000---
B--222222222222-222222222222---
G--222222222222-111111111111---  x2
D--222222222222-222222222222---
A------------------------------
E------------------------------


chorus-distortion
e-----------------------------
B-----------------------------
G--------------222222-555-777- x2
D-222222222222-222222-555-777-
A-222222222222-000000-333-555-
E-000000000000----------------


e-000000000000-000000000000--
B-222222222222-222222222222--
G-222222222222-111111111111--  x2
D-222222222222-222222222222--
A----------------------------
E----------------------------


verse 2- distortion
e----0-----0-----0-----0----------
B---2-2---2-2---2-2---2-2---------
G--2---2-2---2-1---1-1---1--------
D-2-----2-----2-----2-------------
A---------------------------------
E---------------------------------


pre chorus- distortion
e-000000000000-000000000000---
B-222222222222-222222222222---
G-222222222222-111111111111---
D-222222222222-222222222222---
A-----------------------------
E-----------------------------


chorus-PLAY FIRST CHORUS AGAIN

bridge-distortion

e----0 hold -0-----------
B---2-------2-2----------
G--2-----------1 hold-1--  X4
D-2------------2-------2-
A------------------------
E------------------------


PLAY CHORUS AGAIN

THEN AFTER CHORUS PLAY VERSE
WITH NO VOCALS WHILE FADING OUT
            
Submit corrections

comments powered by Disqus
↑ Back to top | Up The Anty Tabs for Untitled #. Lyrics for acoustic guitar and electric guitar. Tablatures and chords are parodies/interpretations of the original songs. You may use it for private study, scholarship, research or language learning purposes only