» » »

Untitled # Tabs (ver.1)

Artists:  A B C D E F G H I J K L M N O P Q R S T U V W X Y Z # 

Untitled # Tabs (ver.1)

Up The Anty
Rating:
0/5 (0 votes)

Hard to play? Try these video lessons and learn fast.
                "(1)
Untitled #1

Composed by Peter Bradley
Words to follow


E----------------------------------------------------------------------------------------------------
B---------------------------------------------------------------------------------------------------- 
G----------------------------------------------------------------------------------------------------
D--------------5---5---6----------5---5--6------------------5---5---6-------------------5--5--6
A-----6---6-----------------6--6------------------------------------------------------------------
E------------------------------------------------------6---6------------------------6---6----------
(distortion)

E----------------------------------------------------------------------------------------------------
B---------------------------------------------------------------------------------------------------- 
G----------------------------------------------------------------------------------------------------
D--------------5---5---6----------5---5--6------------------5---5---6-------------------5--5--6
A-----5---5-----------------6--6------------------------------------------------------------------
E------------------------------------------------------6---6------------------------6---6----------
(distortion)

E---------------------------
B--------------------------- 
G---------------------------
D--------------5---5---6---(let ring)  
A-----5---5-----------------
E----------------------------
(distortion)

(if I had or could play drums they wouldd come in here)

E---0---0----0----0------------0---0----0----0------------0---0-----0----0--------0---0---0--0-
B---x---x----x----x------------ x---x----x----x -----------x---x----x----x------- x---x---x--x 
G---x---x----x----x------------ x---x----x----x ----------1---1----1----1--------2---2----2--2-
D---2---2----2-----2------------4----4----4----4----------x---x----x----x------- x---x---x--x -
A--- x---x----x----x------------ x---x----x----x ----------x---x----x----x------- x---x---x--x 
E--- x---x----x----x------------ x---x----x----x ----------x---x----x----x-------- x---x---x--x

(no distortion)

E---0---0----0----0------------0---0----0----0------------0---0-----0----0--------0---0---0--0-
B---x---x----x----x------------ x---x----x----x -----------x---x----x----x------- x---x---x--x 
G---x---x----x----x------------ x---x----x----x ----------1---1----1----1--------2---2----2--2-
D---2---2----2-----2------------4----4----4----4----------x---x----x----x------- x---x---x--x -
A--- x---x----x----x------------ x---x----x----x ----------x---x----x----x------- x---x---x--x 
E--- x---x----x----x------------ x---x----x----x ----------x---x----x----x-------- x---x---x--x




E----------------------------------------------------------------------------------------------------
B---------------------------------------------------------------------------------------------------- 
G----------------------------------------------------------------------------------------------------
D---------9--------9-----------9-----------------9-------9-----------9---------------8-------8----
A----7--------7---------7-------------9--9---------9--------9-------------6----6--------6------6-
E-----------------------------------------------------------------------------------------------------

E----------------------------------------------------------------------------------------------------
B---------------------------------------------------------------------------------------------------- 
G----------------------------------------------------------------------------------------------------
D--8----------------2------------4------------6-------------9--------9-----------9--------------9-
A------6-/-----0---------0-------------0-----------7----7----7---------7-------------9--9--------
E-----------------------------------------------------------------------------------------------------

E----------------------------------------------------------------------------------------------------
B---------------------------------------------------------------------------------------------------- 
G----------------------------------------------------------------------------------------------------
D--------------9--------9-------------------8-------8--------8-------2-----------4---------2-----
A---------9--------9---------9/----6----6--------6------6-----/0----------0-----------0---------
E-----------------------------------------------------------------------------------------------------

(vocals solo)

E---0---0----0----0------------0---0----0----0------------0---0-----0----0--------0---0---0--0-
B---x---x----x----x------------ x---x----x----x -----------x---x----x----x------- x---x---x--x 
G---x---x----x----x------------ x---x----x----x ----------1---1----1----1--------2---2----2--2-
D---2---2----2-----2------------4----4----4----4----------x---x----x----x------- x---x---x--x -
A--- x---x----x----x------------ x---x----x----x ----------x---x----x----x------- x---x---x--x 
E--- x---x----x----x------------ x---x----x----x ----------x---x----x----x-------- x---x---x--x


E---0---0----0----0------------0---0----0----0------------0---0-----0----0--------0---0---0--0-
B---x---x----x----x------------ x---x----x----x -----------x---x----x----x------- x---x---x--x 
G---x---x----x----x------------ x---x----x----x ----------1---1----1----1--------2---2----2--2-
D---2---2----2-----2------------4----4----4----4----------x---x----x----x------- x---x---x--x -
A--- x---x----x----x------------ x---x----x----x ----------x---x----x----x------- x---x---x--x 
E--- x---x----x----x------------ x---x----x----x ----------x---x----x----x-------- x---x---x—x


E---0---0----0----0------------0---0----0----0------------0---0-----0----0--------0---0---0--0-
B---x---x----x----x------------ x---x----x----x -----------x---x----x----x------- x---x---x--x 
G---x---x----x----x------------ x---x----x----x ----------2---2----2----2--------1---1----1--1-
D---2---2----2-----2------------4----4----4----4----------x---x----x----x------- x---x---x--x -
A--- x---x----x----x------------ x---x----x----x ----------x---x----x----x------- x---x---x--x 
E--- x---x----x----x------------ x---x----x----x ----------x---x----x----x-------- x---x---x--x
"            
Hard to play? Try these video lessons and learn fast. | Correct




comments powered by Disqus
↑ Back to top | Tablatures and chords are parodies/interpretations of the original songs. You may use it for private study, scholarship, research or language learning purposes only