» » »

Up The Anty, Much Adu About Nothing Nothing Tabs (ver.1)

Artists:  A B C D E F G H I J K L M N O P Q R S T U V W X Y Z # 

Much Adu About Nothing Nothing Tabs (ver.1)

Up The Anty Tabs
 Rating:
4/5 (4 votes)
Much Adu About Nothing Nothing lessons Tabs too difficult? Try these video lessons and learn fast
                Band name – Up tHe aNtY
Song name – Much adu about nothing nothing
Band members- Francis Fee – Vocals 
	      Peter Bradley – Lead Guitar
	      Daniel Loughran (Dan the man) – Lead Bass
	      Christopher Scullion - Drums 	


INTRO

e|-------------------------|
B|-------------------------|
G|-3-33--------6-66--------|
D|-3-33--4-44--6-66--6-66--|
A|-1-11--4-44--4-44--6-66--|
E|-------2-22--------4-44--|

The other guitar does:
e|--------------------------------------------------------|
B|--------------------------------------------------------|
G|--------------------------------------------------------|
D|-------6-------6------4------4-------3--3--------6-----6|
A|-1-2-2----2-2------------------3-0-3---4----------------|
E|-----------------1-1-2---2-2---------------5-4-5---5-5--|


Pre-Verse:
e|-----------------------------------------|
B|-----------------------------------------|
G|-33333333------------66666666------------|
D|-33333333--44444444--66666666--66666666--|
A|-11111111--44444444--44444444--66666666--|
E|-----------22222222------------44444444--|

Little solo thing
e|------------------------------|
B|------------------------------|
G|--4--4-5-6--6-9-11--10-11-13--|
D|------------------------------|
A|------------------------------|
E|------------------------------|


Verse:
(muted)
e|-----------------------------------------|
B|-----------------------------------------|
G|-33333333------------66666666------------|
D|-33333333--44444444--66666666--66666666--|
A|-11111111--44444444--44444444--66666666--|
E|-----------22222222------------44444444--|


pre-chorus
e|---------------------------------------------------------
B|---------------------------------------------------------
G|---------------------9-9--9-9-10-8-10-10--10-11-10-8-----
D|-33333333--44444444--------------------------------------
A|-33333333--44444444--------------------------------------
E|-11111111--22222222--------------------------------------

e|--------------------------------------------------------------
B|--------------------------------------------------------------
G|------------------------------------------------------------0-
D|-------2---0-------0--------------------2---0-------0---2-----
A|---------------2-------2---0--------------------2-------------
E|---0----------------------------3---0------
            
Submit corrections

comments powered by Disqus
↑ Back to top | Up The Anty Tabs for Much Adu About Nothing Nothing. Lyrics for acoustic guitar and electric guitar. Tablatures and chords are parodies/interpretations of the original songs. You may use it for private study, scholarship, research or language learning purposes only