>
 >
Whats My Size Again

Whats My Size Again Guitar Tabs

Uphill Gardeners - Whats My Size Again chords, tabs, tablatures, lyrics

Guitar lessons | Add/correct | Request | Top 50 tabs Artists:  A B C D E F G H I J K L M N O P Q R S T U V W X Y Z 0-9

Whats My Size Again Guitar Tabs – Uphill Gardeners

CD, Sheet music, Poster

Do you like Whats My Size Again? Share with your friends now
Tabs
------------------------------------------------------------
      What's my size again (live)- Uphill Gardeners
------------------------------------------------------------


I saw berty play it live so this tab is 100% right. he uses a capo on the 2nd fret.

intro 7x
e|---------------------------------------------------------|
B|-----13------13------13------13--------------------------|
G|---13--13--13--13--13--13--13--13------------------------|
D|-11------------------------------------------------------|
A|---------11----------------------------------------------|
E|-----------------11------13------------------------------|

then this once...
e|---------------------------------------------------------|
B|-----13------13------13------13------13------13----------|
G|---13--13--13--13--13--13--13--13--13--13--13--13--------|
D|-11------------------------------11------11--------------|
A|---------11----------------------------------------------|
E|-----------------11------11------------------------------|

Chorus pt.1 3x
e|---------------------------------------------------------|
B|--------u-d-(d)--u--(d)--d---d-u-d-u---------------------|
G|-d-(d)--8-8-(8)--10-(10)-10--6-6-6-6---------------------|
D|-6-(6)--8-8-(8)--10-(10)-10--6-6-6-6---------------------|
A|-6-(6)--6-6-(6)---8-(8)---8--4-4-4-4---------------------|
E|-4-(4)---------------------------------------------------|

chorus pt.2 1x
e|---------------------------------------------------------|
B|--------u-d-(d)--u-d-u-d-u-d-u-d--u-d-u-d-u-d-u-d--------|
G|-d-(d)--8-8-(8)--1010101010101010-8-8-8-8-8-8-8-8--------|
D|-6-(6)--8-8-(8)---x-x-x-x-x-x-x-x-x-x-x-x-x-x-x-x--------|
A|-6-(6)--6-6-(6)---8-8-8-8-8-8-8-8-6-6-6-6-6-6-6-6--------|
E|-4-(4)---------------------------------------------------|

the chords between the ( )'s could also be 2's. that's why berty uses a capo. it doesn't 
really matter what u do. i don't 
play it the way I wrote it.

intro 1x

verse 3x
e|---------------------------------------------------------|
B|---------------------------------------------------------|
G|---------------------------------------------------------|
D|-6666------8888-10101010---------------------------------|
A|-4444-6666-6666-8-8-8-8----------------------------------|
E|------4444-----------------------------------------------|

then this once.....
e|---------------------------------------------------------|
B|---------------------------------------------------------|
G|---------------------------------------------------------|
D|-6666------1010101010101010-88888888---------------------|
A|-4444-6666--8-8-8-8-8-8-8-8-66666666---------------------|
E|------4444-----------------------------------------------|

chorus pt.1 3x
chorus pt.2 1x

solo 1 1x
e|---------------------------------------------------------|
B|---13---13-----13---13-----------------------------------|
G|-----13---13-----13---13---------------------------------|
D|-11----------11----------11------------------------------|
A|---------------------------------------------------------|
E|---------------------------------------------------------|

solo 2 2x
e|---------------------------------------------------------|
B|---------------------------------------------------------|
G|---------------------------------------------------------|
D|----------10h11----------10h11---------------------------|
A|-11-11-11-------11-11-11---------------------------------|
E|---------------------------------------------------------|

solo 
e|---------------------------------------------------------|
B|---------------------------------------------------------|
G|-------11------------------------------------------------|
D|---10----10----------------------------------------------|
A|-11--11----11--------------------------------------------|
E|---------------------------------------------------------|

============================================================





Comments


Popular Uphill Gardeners tabs & chords
69 Quite Bitter Beings Bass Tabs
Miracle Man Bass Tabs
Pack My Fudge Bass Tabs
Wet Dreams Bass Tabs
Wet Dreams 1 Bass Tabs
Enter Me Tabs
The Cock Show Tabs
The Joy Of Bending Tabs
The Tale Of Quinn And Blair Tabs
Anal Excitement Ukulele


Song lyrics



↑ Back to top | Tablatures and chords are parodies/interpretations of the original songs. You may use it for private study, scholarship, research or language learning purposes only
© 2014 AZChords.com Contact us | Privacy policy | DMCA | Add/correct tabs | Request tabs | Top 50 tabs