>
 >
Gets Me Through

Gets Me Through Guitar Tabs

Uphill Gardeners - Gets Me Through chords, tabs, tablatures, lyrics

Guitar lessons | Add/correct | Request | Top 50 tabs Artists:  A B C D E F G H I J K L M N O P Q R S T U V W X Y Z 0-9

Gets Me Through Guitar Tabs – Uphill Gardeners

CD, Sheet music, Poster

Do you like Gets Me Through? Share with your friends now
Tabs
(KY Jelly) Gets Me Through-Uphill Gardeners

+ = tap

piano arr for gtr.

e-----------------------------------------------------------------
b----------8-7--------------8-7----------------8------------------
g-----9--------9-------9--------9---------9------11-9-------------
d---9---9--------9---9---9--------9----10---10--------10----------
a-7------7---------7------7---------------------------------------
e-0----------------------------------8----------------------------

e-----------------------------------------------------------------
b------------8-7--------------8-7--------------8-7----------------
g------9---------9-------9--------9-------9--------9--------------
d---10---10--------9---9---9--------9---9---9--------9------------
a--------------------7------7---------7------7--------------------
e-8--------8------------------------------------------------------

e--------------------------------12----24-------------------------
b------------8----------------------11----23----------------------
g------9-------11-9----9------------------------------------------
d---10---10---------10---8----8-----------------------------------
a--------------------------10-------------------------------------
e-8--------8-----------8------------------------------------------

Riff A x2

e-----------------------------------------------------------------
b-----------------------------------------------------------------
g-----------------------------------------------------------------
d----------------------------------------------------0h2----------
a---------4b--------4b---------------4b----------0h2--------------
e-0-0---0-2b---0--0-2b---0--0-0-0--0-2b---0-0--0------------------

verses:

e-----------------------------------------------------------------
b-----------------------------------------------------------------
g-----------------------------------------------------------------
d-----------------------------------------------------------------
a-2-2--2-2---2--2-2--2--2-2-2--2-2---2--2-2--2--2-2-2--2---x-x-x-x
e-0-0--0-3---0--0-3--0--0-0-0--0-3---0--0-3--0--0-0-0--0-3-x-x-x-x

interlude: Riff A

Bridge:

e-----------------------------------------------------------------
b-5------7--8--5------7--8--------8--7-------8--7-----------------
g-x------x--x--x------x--x--5-----x--x--5----x--x-----------------
d-2------4--5--2------4--5--x-----5--4--x----5--4-----------------
a---------------------------3-----------3-------------------------
e-----------------------------------------------------------------

B5       D5

solo: w/ wah

E5vii                                           G5x

e-----------------------------------------------------------------
b-----------------------------------------------------------------
g-9~~~~~~~~~~~~-11b---11b-r11b-9~~~~~~~~~~~~~~-/14~~~~~~~~~-12--11
d-----------------------------------------------------------------
a-----------------------------------------------------------------
e-----------------------------------------------------------------

C5                                     G5x

e-----------------------------------------------------------------
b-----------------------------------------------------------------
g-11--12--------12b-----rb-11--12---------------------------------
d--------10~~10-------------------10~~~---------------------------
a--------------------------------------121110121110---------------
e--------------------------------------------------121110121110---

E5vii
             +    +      +    +    +    +    +      +    +
e-----------------------------------------------------------------
b-----------------------------------------------------------------
g-797979797~~11p7-11p7h9-11p7-11p7-11p9-12p9-12p7h9-12p7-12p9p7---
d-----------------------------------------------------------------
a-----------------------------------------------------------------
e-----------------------------------------------------------------

E5 vii       G5x
             +    +    +    +    +      +      +    +   
e-----------------------------------------------------------------
b-----------------------------------------------------------------
g-797979797~~14p9-14p7-14p9-14p9-14p7h9-12p7h9-11p7-10p9p7--------
d-----------------------------------------------------------------
a-----------------------------------------------------------------
e-----------------------------------------------------------------

C5                                               B5         D5

e--------------12----15b~~~~~15b-15b-15b-15br-12------------------
b--15b~~~~~~~~~~-15------------------------------15b~~15p12-------
g------------------x---------------------------------------14brp12
d-----------------------------------------------------------------
a-----------------------------------------------------------------
e-----------------------------------------------------------------

D5             A5  G#5   G5

e--------------------------7-12p7p6h7-12p7p6h7-12p7p6h7-12--------
b-----------------------------------------------------------------
g-14b~~~~~--------------------------------------------------------
d------------------7b--7br----------------------------------------
a-----------------------------------------------------------------
e----------x~~~~~~------------------------------------------------

A5     G#5    G5           A5    G#5   G5    F#5

e-----------------------------------------------------------------
b-------------8b~~~~~~~~~--5-----4-----3-----14-------------------
g------7b--br--------------7b----6b----5b----16b------------------
d--7p5------------------------------------------------------------
a-----------------------------------------------------------------
e-----------------------------------------------------------------

outro solos: w/ wah

e-----------------------------------------------------------------
b-----------------------------------------------------------------
g--------12---------12----------12------12------------------------
d-x-x--x-12----x--x-12-----x-x--12--x-x-12--x--x-x-x-x-x-x-x-x----
a-x-x--x-------x--x--------x-x------x-x-----x--x-x-x-x-x-x-x-x----
e-----------------------------------------------------------------

e----------------------------------------------12-----------------
b---------12-15-12---------12-15-12----------12---12-15b~~~~~~----
g-14b~~~~~---------14b~~~~~---------14b~~~~~----------------------
d-------------------------------------------------------------x-x-
a-----------------------------------------------------------------
e-----------------------------------------------------------------

begin fading out

e-----------------------------------------------12----15b~~~~~~~~~
b---------12-15-12---------12-15-12----------12----12-------------
g-14b~~~~~---------14b~~~~~---------14b~~~~~~~--------------------
d-----------------------------------------------------------------
a-----------------------------------------------------------------
e-----------------------------------------------------------------

e------------12-----------------12----------------12----------12--
b-15b~~~~~~~~--15p12-15b~~~~~rb----15p12-15b~~~~~~--15p12-15b-----
g-----------------------------------------------------------------
d-----------------------------------------------------------------
a-----------------------------------------------------------------
e-----------------------------------------------------------------

e----12-----------------------------------------------------------
b-15b--15p12-15b--15p12-15b--15p12-15b--15p12-15b--15p12-15b-15p12
g-----------------------------------------------------------------
d-----------------------------------------------------------------
a-----------------------------------------------------------------
e-----------------------------------------------------------------

e------15-12-----15p12-17p12-15p12--------------12----------------
b-15p12-----15p12------------------15p12-15b~~~~---15p12--12-16---
g-------------------------------------------------------14--------
d-----------------------------------------------------------------
a-----------------------------------------------------------------
e-----------------------------------------------------------------

e--------12------12-----12------12-----------------------16-16----
b-12---12--12--12--12-12--12--12--12-12--------15b~~~p12-15-15----
g----15------15-------------15----------14brp12-------------------
d-----------------------------------------------------------------
a-----------------------------------------------------------------
e-----------------------------------------------------------------

thatís the whole song
fuck thatís long

trevor jones





Comments


Popular Uphill Gardeners tabs & chords
69 Quite Bitter Beings Bass Tabs
All The Big Things Bass Tabs
Straddle Me Up Chords
69 1 Tabs
A Place For My Head Tabs
Hard On Tabs
Spit It Out Tabs
Suck Me When Im Up Tabs
The Joy Of Bending Tabs
Up The Hole (Intro) Tabs


Song lyrics



↑ Back to top | Tablatures and chords are parodies/interpretations of the original songs. You may use it for private study, scholarship, research or language learning purposes only
© 2014 AZChords.com Contact us | Privacy policy | DMCA | Add/correct tabs | Request tabs | Top 50 tabs