>
 >
Taya

Taya Guitar Tabs

Up Dharma Down - Taya chords, tabs, tablatures, lyrics

Guitar lessons | Add/correct | Request | Top 50 tabs Artists:  A B C D E F G H I J K L M N O P Q R S T U V W X Y Z 0-9

Taya Guitar Tabs – Up Dharma Down

CD, Sheet music, Poster

Do you like Taya? Share with your friends now
Tabs
performed by: up dharma down

.,aztig tlga tong kantang toh.wla png gmgwa ng tab kea ako nln ang gmwa.meju mdali ln 

| /  slide up
| \  slide down
| h  hammer-on
| p  pull-off
| ~  vibrato
| +  harmonic
| x  Mute note
| .  palm mute

Tuning:standard

  intro & verse 1: jazzy clean effect
  repeat 6x
e|---------------------------------------------------|
B|-6-----6-----6-----6-----3----3----3----3----------|
G|---3--3--3-3---3--3--3-3--3--3--3-3-3--3--3--3-----|
D|----5-----5-----5-----5----------------------------|
A|---------------------------6-----6---6-----6-------|
E|---------------------------------------------------|

  chorus:
 lush effect and add up a little bass
 repeat 4x
e|------------------|--------------------------------|
B|------------------|--------------------------6-----|
G|--5h6-5h6---------|--3h5-3h5---------3h5-3h5---5-3-|
D|-----------55555--|-----------55555----------------|
A|------------------|--------------------------------|
E|------------------|--------------------------------|
             .....              .....
  |-------2x-------|

  verse 2:
  jazzy clean effect |  "'dyna phaser'" ata gnamit n effect dito
e|-------------------|-------------------------|
B|-6~----------------|---3~--------------------|
G|-3~----------------|---3~--------------------|
D|-5~----------------|-------------------------|
A|-------------------|---6~--------------------|
E|-------------------|-------------------------|

  balik kau s jazzy effect
e|---------|------------|-------------------------|
B|-6---6---|-6666666666-|------6---6--------------|
G|--3-3----|------------|-------3-3---------------|
D|---5-----|------------|--------5----------------|
A|---------|------------|-------------------------|
E|---------|------------|-------------------------|
           |---mabilis--|
           |-tong part--|
           |---na to----|


  may konting pause at drum solo tapos:
  repeat 2x
e|---------------------------------------------------|
B|-6-----6-----6-----6-----3----3----3----3----------|
G|---3--3--3-3---3--3--3-3--3--3--3-3-3--3--3--3-----|
D|----5-----5-----5-----5----------------------------|
A|---------------------------6-----6---6-----6-------|
E|---------------------------------------------------|

  chorus:
 lush effect and add up a little bass
 repeat 4x
e|------------------|--------------------------------|
B|------------------|--------------------------6-----|
G|--5h6-5h6---------|--3h5-3h5---------3h5-3h5---5-3-|
D|-----------55555--|-----------55555----------------|
A|------------------|--------------------------------|
E|------------------|--------------------------------|
             .....              .....
  |-------2x-------|

  breakdown:
  hindi ako masyado sure dito pero sa tingin ko ok naman.e-mail nyu nalang ako kung may 
kau.tnx,.=)
  lush effect and add up a little bass
  repeat 8x
e|-20-18-17------------------------------------|
B|----------18-20-20-18------------------------|
G|----------------------20---------------------|
D|-------------------------19-19/20\17---------|
A|---------------------------------------------|
E|---------------------------------------------|

  after the 4th time,,may sasabay na ganito:
  ulit-ulitin lan hanggang pagkatapos
e|-------------------------------|
B|-------------------------------|
G|-------------------------------|
D|---5-5555--5-5555--------------|
A|-------------------------------|
E|-------------------------------|
     . ....  . ....

.,sorry hindi ako masyadong sure sa breakdown.please rate this.thank you,.=)
.,!!enjoy!!,.





Comments


Popular Up Dharma Down tabs & chords
Indak 3 Chords
Parks Chords
Sana Chords
Thinker 1 Chords
Feelings Tabs
Flicker Ukulele
Kulang Ukulele
Pag-agos Ukulele
Sana Ukulele
Tadhana Ukulele


Song lyrics



↑ Back to top | Tablatures and chords are parodies/interpretations of the original songs. You may use it for private study, scholarship, research or language learning purposes only
© 2014 AZChords.com Contact us | Privacy policy | DMCA | Add/correct tabs | Request tabs | Top 50 tabs