» » »

Luna Chords (ver.1)

Artists:  A B C D E F G H I J K L M N O P Q R S T U V W X Y Z # 

Luna Chords (ver.1)

Up Dharma Down
Rating:
0/5 (0 votes)

Hard to play? Try these video lessons and learn fast.
                -----------------------------------------------------------------------------
-----------------------------------------------------------------------------



*standard tuning


Intro: Repeat 2x
e|------------------------------------------------------------------------------------|
B|-----------------6-----------------5-----------------6-------------------5-------8--|
G|----------5-----------------5-----------------5--------------------5----------------|
D|----8-----------------7----------------8-------------------7------------------------|
A|------------------------------------------------------------------------------------|
E|------------------------------------------------------------------------------------|

F         Am  G      F
Ano na naman itong gumugulo

     Am   G
sa buhay ko?

F                 Am    G
Bawat nakaw-tingin

F                      Am    G
Sinasalo lang ng hangin

Chorus:

Dm
Minamasdan

      Em
Ang saya ng puso mo

F
Sa piling ng iba

Dm
Inaasam

Em
Ang paglaya ng buwan

F
Na laging mag-isa

Oooooh

(Repeat Intro)

F          Am
Ano na naman

G       F          Am    G
itong  sinusuyo ng buhay ko

F                     Am G
pinangtatawag ng pansin

F                     Am   G
mawawala lang sa hangin

Chorus 2:

Dm
Inaasam

Em
ang saya ng puso ko

F
sa piling ng iba

Dm
Minamasdan

Em
ang paglaya ng buwan

F
na laging mag-isa

Instrumental:

(Variation of F  Am  G , you can do this to emulate Carlos Tanada’s lick. Accent it on 
the 8th fret of the B string. Repeat until fade)

e|--------------5--------------------|
B|---8----------8-------8------------|
G|---5----------5-------7------------|
D|---x----------5-------x------------|
A|---8----------7------10------------|
E|--------------5--------------------|

Oh oh ooooh oh…
Oh oh ooooh oh…
            
Hard to play? Try these video lessons and learn fast. | Correct




comments powered by Disqus
↑ Back to top | Tablatures and chords are parodies/interpretations of the original songs. You may use it for private study, scholarship, research or language learning purposes only