>
 >
Superman

Superman Guitar Tabs

Unwritten Law - Superman chords, tabs, tablatures, lyrics

Guitar lessons | Add/correct | Request | Top 50 tabs Artists:  A B C D E F G H I J K L M N O P Q R S T U V W X Y Z 0-9

Superman Guitar Tabs – Unwritten Law

CD, Sheet music, Poster

Do you like Superman? Share with your friends now
Tabs


INTRO 
e|---------------------------------------------------------------| 
B|---------------------------------------------------------------| 
G|----7----7--------5----5-------------7-----7-----7-77777777----| 
D|---9----9---9---7----7---7--(X3)---9-----9---9---7-77777777----| 
A|-7----7-------5----5-------------7-----7---------5-55555555----| 
E|---------------------------------------------------------------| 
...pm... 
VERSE 
e|---------------------------------------------------------------| 
B|---------------------------------------------------------------| 
G|---9---9---9---9----7----7----7----7------55555555-44444444----| 
D|---9---9---9---9----7----7----7----7-(X4)-55555555-44444444----| 
A|---7---7---7---7-XX-5-XX-5-XX-5-XX-5------33333333-22222222----| 
E|-XX--XX--XX--XX------------------------------------------------| 

CHORUS 
e|---------------------------------------------------------------| 
B|---------------------------------------------------------------| 
G|-------------------------2222------4444------5555-44444444-----| 
D|-(INTRO)--(VERSE)---2222-2222-2222-4444-2222-5555-44444444-----| 
A|--------------------2222-0000-2222-2222-2222-3333-22222222-----| 
E|--------------------0000------0000------0000-------------------| 

BRIDGE 
e|---------------------------------------------------------------| 
B|---------------------------------------------------------------| 
G|-------------------------------------9999----------------------| 
D|-(INTRO)--(VERSE)--(CHORUS)-77777777-9999-10101010-(X4)-999999-| 
A|----------------------------77777777-7777-10101010------999999-| 
E|----------------------------55555555-------8-8-8-8------777777-| 
..PM.. 

SOLO
e|--0-0-0-0-0-0-0-0-0-0-0-0-0-0-0-0-0-0-0-0-0-0-0--| 
B|--5-5-5-5-5-2-2-2-2-5-5-5-5-5-4-4-4-4-5-5-5-5-5--| 
G|-------------------------------------------------| 
D|-------------------------------------------------| 
A|-------------------------------------------------| 
E|-------------------------------------------------| 

e|--0-0-0-0-0-0-0-0-0-0-0-0-0-0-0-0-0--| 
B|--1-1-1-1-0-0-0-0-0-0-0-0-0-0-0-0-0--| 
G|-------------------------------------| 
D|-------------------------------------| 
A|-------------------------------------| 
E|-------------------------------------| 

FINAL CHORUS 
e|---------------------------------------------------------------| 
B|---------------------------------------------------------------| 
G|-9999------9999------9999--------------------------------------| 
D|-9999-7777-9999-9999-9999-10101010-999999----------------------| 
A|-7777-7777-7777-9999-7777-10101010-999999----------------------| 
E|------5555------7777-------8-8-8-8-777777----------------------| 





Comments


Popular Unwritten Law tabs & chords
She Says Bass Tabs
C.P.K 1 Tabs
Cailin 1 Tabs
Denied Tabs
Elva (Intro) Tabs
Lonesome Tabs
Mean Girl Tabs
She Says 1 Tabs
Sound Siren 2 Tabs
Ww Iii Tabs


Song lyrics



↑ Back to top | Tablatures and chords are parodies/interpretations of the original songs. You may use it for private study, scholarship, research or language learning purposes only
© 2014 AZChords.com Contact us | Privacy policy | DMCA | Add/correct tabs | Request tabs | Top 50 tabs