» » »

Unwritten Law, Sound Siren Tabs (ver.2)

Artists:  A B C D E F G H I J K L M N O P Q R S T U V W X Y Z # 

Sound Siren Tabs (ver.2)

Unwritten Law Tabs
 Rating:
4/5 (4 votes)
Sound Siren lessons Tabs too difficult? Try these video lessons and learn fast
                                        Unwritten Law – Sound Siren

Verse
       (part 1)				(part 2)
e|---------------------------|-----------------------------------------------|
B|---------------------------|-----------------------------------------------|
G|-----x-x-x-5-5-x-x-x-------|------4-5--x-----------------------------------|
D|-5-5-x-x-x-5-5-x-x-x- x 3 -|-5-5--4-5--x--4-4~-----------------------------|
A|-5-5-x-x-x-3-3-x-x-x-------|-5-5--2-3--x--4-4~-----------------------------|
E|-3-3-x-x-x-----x-x-x-------|-3-3-------x--2-2~-----------------------------|

Pre Chorus
e|---------------------------------------------------------------------------|
B|---------------------------------------------------------------------------|
G|-7-7-7-7-7-7-7-7--5-5-5-5-5-5-5-5------------------------------------------|
D|-7-7-7-7-7-7-7-7--5-5-5-5-5-5-5-5------------------------------------------|
A|-5-5-5-5-5-5-5-5--3-3-3-3-3-3-3-3------------------------------------------|
E|---------------------------------------------------------------------------|

Verse (part 2) x 2

Pre Chorus (with one extra note on the end)

Chorus 
e|---------------------------------------------------------------------------|
B|---------------------------------------------------------------------------|
G|-------------------4-4-4-4--5-5-5-5----------------------------------------|
D|-5-5-5-5--7-7-7-7--4-4-4-4--5-5-5-5----------------------------------------|
A|-5-5-5-5--7-7-7-7--2-2-2-2--3-3-3-3----------------------------------------|
E|-3-3-3-3--5-5-5-5----------------------------------------------------------|

Verse (part 1) x 2

Verse (normal)

Pre Chorus

Verse (part 2) x 2

Pre Chorus

Chorus

Bridge 
e|---------------------15\\\\\--------------------------------------15\\\\\--|
B|-15~------------(15)-------------------------15~-------------(15)----------|
G|---------------------------------------------------------------------------|
D|---------------------------------------------------------------------------|
A|---------------------------------------------------------------------------|
D|---------------------------------------------------------------------------|
Guitar 2
e|------------3---------3---------------------------------3---------3--------|
B|-1----------2---------3----------------------1----------2---------3--------|
G|-0----------3---------0----------------------0----------3---------0--------|
D|-2----------0---------2----------------------2----------0---------2--------|
A|-3--------------------3----------------------3--------------------3--------|
D|---------------------------------------------------------------------------|

Chorus (till end)
            
Submit corrections

comments powered by Disqus
↑ Back to top | Unwritten Law Tabs for Sound Siren. Lyrics for acoustic guitar and electric guitar. Tablatures and chords are parodies/interpretations of the original songs. You may use it for private study, scholarship, research or language learning purposes only