» » »

Unwritten Law, Sorry Tabs (ver.3)

Artists:  A B C D E F G H I J K L M N O P Q R S T U V W X Y Z # 

Sorry Tabs (ver.3)

Unwritten Law Tabs
 Rating:
4/5 (4 votes)
Sorry lessons Tabs too difficult? Try these video lessons and learn fast
                Standard Tuning.  Pretty sure this is 100% correct.
A faster song. If you have any requests

-|------------------|---------------------------------------------------------
-|--4--4-4-4-4-4-4--|------0-0-2-2--------------------------------------------
-|--4--4-4-4-4-4-4--|-x3---1-1-3-3--------------------------------------------
-|--4--4-4-4-4-4-4--|------2-2-4-4--------------------------------------------
-|--2--2-0-2-0-2-0--|------2-2-4-4--------------------------------------------
-|------------------|------0-0-2-2--------------------------------------------
 INTRO- Repeat this 4 times                                                   

-|----------------------------|-----------------------------------------------
-|----------------------------|------------------------------------------9999-
-|----------------------------|-x2---------------------------------------9999-
-|----------------------------|------------------------------------------9999-
-|----4-7-4-------0------2----|-------5-7-4------0-3-0-------2-4-2-4-2---7777-
-|--55-5-5-5----11-1---33-3---|-----55-4-5-5---11-1-1-1----33-3-3-3-3-3-------
  VERSE                                                                       

-|----------------------------------------------------------------------------
-|-7-----9-----7-----0-----5----9---------------------------------------------
-|-8-----9-----8-----1-----6----9---------------------------------------------
-|-9-----9-----9-----2-----7----9---------------------------------------------
-|-9-----7-----9-----2-----7----7---------------------------------------------
-|-7-----------7-----0-----5--------------------------------------------------
 CHORUS-Rhythm is easy...figure it out. Intro follows "And I'm not sorry.."   

-|----------------------------------------------------------------------------
-|--2----6----2----6----7---11----9-------------------------------------------
-|--3----6----3----6----8---11----9-------------------------------------------
-|--4----6----4----6----9---11----9-------------------------------------------
-|--4----4----4----4----9---9-----7-------------------------------------------
-|--2---------2---------7-----------------------------------------------------
 After 2nd chorus and 3rd intro.Last chord(E) is muted.Outro same as intro.
            
Submit corrections

comments powered by Disqus
↑ Back to top | Unwritten Law Tabs for Sorry. Lyrics for acoustic guitar and electric guitar. Tablatures and chords are parodies/interpretations of the original songs. You may use it for private study, scholarship, research or language learning purposes only