» » »

Unwritten Law, Sorry Tabs (ver.2)

Artists:  A B C D E F G H I J K L M N O P Q R S T U V W X Y Z # 

Sorry Tabs (ver.2)

Unwritten Law Tabs
Rating:
0/5 (0 votes)
Sorry lessons Tabs too difficult? Try these video lessons and learn fast
                Intro: 
G|-4-4---------4-4---------4-4----------------- 
D|-4-4---------4-4---------4-4---------2-2-4-4- 
A|-2-2-2^0-2^0-2-2-2^0-2^0-2-2-2^0-2^0-2-2-4-4- <-- X4 
E|-------------------------------------0-0-2-2- 

Verse:X2    PM......           PM...... 
G|-6-6-9-6--2-2--4-4--6-6-9-6--2-2--4-4- 
D|-7-7-7-7--3-3--5-5--7-7-7-7--3-3--5-5- 
A|-0-0-0-0--0-0--0-0--0-0-0-0--0-0--0-0-  
E|-------------------------------------- 

                   
G|-6-6-9-6--2-2-5-5--4-4-7-4-7-4-7-4--------- 
D|-7-7-7-7--3-3-3-3--5-5-5-5-5-5-5-5-2-2-2-2- 
A|-0-0-0-0--0-0-0-0--0-0-0-0-0-0-0-0-2-2-2-2- 
E|-----------------------------------0-0-0-0- 

Chorus 1: 
( I am not sure about this but the chords are A B E) 
B 
Slow Down Boy, 
A 
I'm not easy,  
B             A            E 
Don't want to Be an sleazy whore 
E 
So I showed her to the door,  

B (intro Riff) 
Overabundancy And I'm not sorry 

That is it so far... 
            
Submit corrections

comments powered by Disqus
↑ Back to top | Unwritten Law Tabs for Sorry. Lyrics for acoustic guitar and electric guitar. Tablatures and chords are parodies/interpretations of the original songs. You may use it for private study, scholarship, research or language learning purposes only