>
 >
Sorry

Sorry Guitar Tabs

Unwritten Law - Sorry chords, tabs, tablatures, lyrics

Guitar lessons | Add/correct | Request | Top 50 tabs Artists:  A B C D E F G H I J K L M N O P Q R S T U V W X Y Z 0-9

Sorry Guitar Tabs – Unwritten Law

CD, Sheet music, Poster

Do you like Sorry? Share with your friends now
Bass TabsTabsTabs v2Tabs v3
Standard Tuning.  A faster song. If you have any requests

-|------------------|---------------------------------------------------------
-|--4--4-4-4-4-4-4--|------0--2-----------------------------------------------
-|--4--4-4-4-4-4-4--|-x3---1--3-----------------------------------------------
-|--4--4-4-4-4-4-4--|------2--4-----------------------------------------------
-|--2--2-0-2-0-2-0--|------2--4-----------------------------------------------
-|------------------|------0--2-----------------------------------------------
 INTRO- Repeat this 4 times                                                   

-|----------------------------|-----------------------------------------------
-|----------------------------|------------------------------------------9999-
-|----------------------------|-x2---------------------------------------9999-
-|----------------------------|------------------------------------------9999-
-|----4-7-4-------0------2----|-------5-7-4------0-3-0-------2-4-2-4-2---7777-
-|--55-5-5-5----11-1---33-3---|-----55-4-5-5---11-1-1-1----33-3-3-3-3-3-------
  VERSE                                                                       

-|----------------------------------------------------------------------------
-|-7-----9-----7-----0-----5----9---------------------------------------------
-|-8-----9-----8-----1-----6----9---------------------------------------------
-|-9-----9-----9-----2-----7----9---------------------------------------------
-|-9-----7-----9-----2-----7----7---------------------------------------------
-|-7-----------7-----0-----5--------------------------------------------------
 CHORUS-Rhythm is easy...figure it out. Intro follows "And I'm not sorry.."   

-|----------------------------------------------------------------------------
-|--2----6----2----6----7---11----9-------------------------------------------
-|--3----6----3----6----8---11----9-------------------------------------------
-|--4----6----4----6----9---11----9-------------------------------------------
-|--4----4----4----4----9---9-----7-------------------------------------------
-|--2---------2---------7-----------------------------------------------------
 After 2nd chorus and 3rd intro.Last chord(E) is muted.Outro same as intro.





Comments


Popular Unwritten Law tabs & chords
Elva Bass Tabs
Cailin Chords
Cailin Tabs
Rejected Tabs
Rescue Me Tabs
Seein Red Tabs
Seein' Red 1 Tabs
Seein3 Red Tabs
Shallow Tabs
Sound Siren 1 Tabs


Song lyrics



↑ Back to top | Tablatures and chords are parodies/interpretations of the original songs. You may use it for private study, scholarship, research or language learning purposes only
© 2014 AZChords.com Contact us | Privacy policy | DMCA | Add/correct tabs | Request tabs | Top 50 tabs