>
 >
Rest Of My Life

Rest Of My Life Bass Tabs

Unwritten Law - Rest Of My Life chords, tabs, tablatures, lyrics

Guitar lessons | Add/correct | Request | Top 50 tabs Artists:  A B C D E F G H I J K L M N O P Q R S T U V W X Y Z 0-9

Rest Of My Life Bass Tabs – Unwritten Law

CD, Sheet music, Poster

Do you like Rest Of My Life? Share with your friends now
Bass TabsTabsTabs v2Tabs v3
INTRO
G|--12-11-9---------------------|
D|-------------12-10-9------12--|
A|------------------------12----|
E|------------------------------|

VERSE 1
G|--------------------------------------------------|
D|---5---4---2--------------------------------------|
A|-5---5---5----3-5---2-3---3-2---2-0---0-5-3-2-0---|
E|--------------------------------------------------|

CHORUS
G|---------------------------------------------------------------------------------|
D|---------------------------------55555-44444--22222------------------------------|
A|-3333333333333-55555555555555--5-----5------5--------3-55555-3333333333333-5555555555555---|
E|---------------------------------------------------------------------------------|
VERSE 2 x2
G|---------------------------------------------------|
D|---5---4---2---------------------------------------|
A|-5---5---5----3-5---2-3---2-3~-2~-0~---0-5-3-2-0---|
E|---------------------------------------------------|

CHORUS x2

FILL
G|--------------------------------------------------------------------------------|
D|-555555555----------------------------55555555-------------55555555-------------|
A|----------------22222222-55555555----------------55555555-------------55555555--|
E|--------------------------------------------------------------------------------|

CHORUS 

BRIDGE (not sure)
G|------------------------------------------------------------------------|
D|-55-4-2-0------55-4-2-0----------------55-4-2-0--------55-4-2-0---------|
A|------------2--------------3-77777-------------------2-------------3--0-|
E|------------------------------------------------------------------------|

OR

G|--------------------------------------------------------------------------------|
D|--------------------------------------------------------------------------------|
A|-3333333333333-555555555555555-777777777777-33333333-55555555-33333333-55555555-|
E|--------------------------------------------------------------------------------|

Pause through solo

CHORUS

OUTRO
G|------------------------|
D|-5-4-2------------------|
A|--------5-3-2-0---------|
E|------------------2-3~~-|





Comments


Popular Unwritten Law tabs & chords
Crazy Poway Kids 1 Bass Tabs
Denied Bass Tabs
Elva Bass Tabs
Lonesome Bass Tabs
How You Feel Tabs
Save Me 2 Tabs
Seein' Red Tabs
Seein3 Red Tabs
The Legend Of Johnny And Sarah Tabs
Welcome To Oblivion Tabs


Song lyrics



↑ Back to top | Tablatures and chords are parodies/interpretations of the original songs. You may use it for private study, scholarship, research or language learning purposes only
© 2014 AZChords.com Contact us | Privacy policy | DMCA | Add/correct tabs | Request tabs | Top 50 tabs