» » »

Unwritten Law, Rescue Me Tabs (ver.3)

Artists:  A B C D E F G H I J K L M N O P Q R S T U V W X Y Z # 

Rescue Me Tabs (ver.3)

Unwritten Law Tabs
Rating:
0/5 (0 votes)
Rescue Me lessons Tabs too difficult? Try these video lessons and learn fast
                Standard Tuning

The parts I have tab out are only the intro and verse

E|------0---------------|
B|------0---------------|
G|----------------------|
D|--2-2-----------------|
A|--2-2----2233220022---|
E|--0-0-----------------|

E|------0-------------------3-----------------0-------------------0--------------|
B|------0-------------------3-----------------0-------------------0--------------|
G|------------------------------------------2------------------------------------|
D|--2-2-----------------5-5-----------------2-----------------2-2----------------|
A|--2-2----2233220022---5-5----2233220022---0----2233220022---2-2----2233220022--|
E|--0-0-----------------3-3-----------------------------------0-0----------------|
Thats it thanks for looking and send corrections if needed
            
Submit corrections

comments powered by Disqus
↑ Back to top | Unwritten Law Tabs for Rescue Me. Lyrics for acoustic guitar and electric guitar. Tablatures and chords are parodies/interpretations of the original songs. You may use it for private study, scholarship, research or language learning purposes only