» » »

Rescue Me Tabs (ver.2)

Artists:  A B C D E F G H I J K L M N O P Q R S T U V W X Y Z # 

Rescue Me Tabs (ver.2)

Unwritten Law
Rating:
0/5 (0 votes)

Hard to play? Try these video lessons and learn fast.
                INTRO   (oo:oo - oo:11)
Guitar 1  (played fast with up and down stroke)
----------------------------------|---------------------------------
----------------------------------|---------------------------------
----------------------------------|x3-------------------------------
----------------------------------|---------------------------------
---------------22--33--22--00--22-|-------------22--33--22--00--55--
--00(ring)------------------------|---00(ring)----------------------

Guitar 2   (only playing the heavy down beat)
---------------------------------
---------------------------------
---------------------------------
--00-----------------------------
--00-----------------------------
--00-----------------------------

VERSE  (oo:12 - oo:20)
Guitar 1  (Palm Mute)
------------------------------------|---------------------------------
------------------------------------|---------------------------------
------------------------------------|x3---7------------------8--------
--00--------------------------------|-----7-x8(8 down then---8-x8(up and 
--00-------------22--33--22--00--22-|-----5----up strokes----6-----down)
--00(ring)--------------------------|----------so 16 in all)-----------

Guitar 1  (oo:21 - oo:40)             Guitar 3 then plays these notes in place of the open cords are
------------------------------------   ------------------------------
------------------------------------   ------------------------------
------------------------------------   ------------------------------
--00--------------------------------   -00----55----77--55--00-------
--00--------22--33--22--00--22------   -00----55----77--55--00-------
--00(ring)--------------------------   -00----33----55--33--00-------

(00:40-oo:45) also prechorus (00:49 - 00:54)
------------------------------------   
------------------------------------   
----------------listen to CD for----   
--5--------7------how many times----   
--5--------7------------------------   
--3--------5------------------------   

CHORUS   (listen to song for how many times played)
------------------------------------   
------------------------------------   
-9----------------------------------   
-9----5----10---9---7---------------   
-7----5----10---9---7---------------   
------3----8----7---5---------------

Then you repeat the verse and chorus a bunch of times 

play the intro again nice and loud and end on this
------------------------------------    
------------------------------------  
------------------------------------   
--00--------------------------------   
--00--------------------------------   
--00--------------------------------
            
Hard to play? Try these video lessons and learn fast. | Correct




comments powered by Disqus
↑ Back to top | Tablatures and chords are parodies/interpretations of the original songs. You may use it for private study, scholarship, research or language learning purposes only