» » »

Lost Control Bass tabs (ver.2)

Artists:  A B C D E F G H I J K L M N O P Q R S T U V W X Y Z # 

Lost Control Bass tabs (ver.2)

Unwritten Law
Rating:
0/5 (0 votes)

Hard to play? Try these video lessons and learn fast.
                Tuning: Drop Db
Bass comes in after drum fill:

Intro:                                             Then      Whole Thing X2
Gb|--------------------------------------------|X3---------------------|
Db|--------------------------------------------|  ---------------------|
Ab|---------------5h7----5h7-------------------|  ---------------------|
Db|-22-22222-2222-----22-----------------------|  ---555555555-77777777|

Verse 1:

Gb|-------------------------------------|X2
Db|-------------------------------------|
Ab|----------------333333--0000000---555|
Db|-222222--555555----------------000---|

Chorus:

Gb|---------------------------------------------|
Db|---------------------------------------------|
Ab|----------------5555555\33333333-00000---5--5|
Db|-2222222222-5555-----------------------00--00|

Gb|---------------------------------------------|
Db|-2222222222----------------------------------|
Ab|---------------55555555\33333333-000000------|
Db|------------555------------------------000000|

Postchorus:
                                           Then      
Gb|--------------------------------------------|X3---------------------|X1
Db|--------------------------------------------|  ---------------------|
Ab|---------------5h7----5h7-------------------|  ---------------------|
Db|-22-22222-2222-----22-----------------------|  ---555555555-77777777|

Verse 2:

Gb|-------------------------------------|X2
Db|-------------------------------------|
Ab|----------------333333--0000000---555|
Db|-222222--555555----------------000---|

Chorus 2:

Gb|---------------------------------------------|
Db|---------------------------------------------|
Ab|---------------55555555\33333333-00000---5--5|
Db|-2222222222-555------------------------00--00|

Gb|---------------------------------------------|
Db|-2222222222----------------------------------|
Ab|----------------5555555\33333333-000000------|
Db|------------555------------------------000000|

Bass Fill/Breakdown:

Gb|--------------------------------------------|X3----------|
Db|--------------------------------------------|  ----------| 
Ab|---------------5h7----5h7-------------------|  ----------|
Db|-22-22222-2222-----22-----------------------|  -22222222-|

Gb|--------------------------------------------|X3----------------|
Db|--------------------------------------------|  -5555555/777777-| 
Ab|---------------5h7----5h7-------------------|  ----------------|
Db|-22-22222-2222-----22-----------------------|  ----------------|

Chorus 3: X2

Gb|---------------------------------------------| 
Db|---------------------------------------------|
Ab|---------------55555555\33333333-00000---5--5|
Db|-2222222222-555------------------------00--00|

Gb|---------------------------------------------| (Add in a load of fills
Db|-2222222222----------------------------------|  to make this part more
Ab|----------------5555555\33333333-000000------|  enjoyful (= )
Db|------------555------------------------000000|

Outro:
Gb|--------------------------------------------|X4---------------------|
Db|--------------------------------------------|  ---------------------|
Ab|---------------5h7----5h7-------------------|  ---------------------|
Db|-22-22222-2222-----22-----------------------|  ---555555555-77777777|

Thanks For Looking And ENJOY!! =D

Scartman69
            
Hard to play? Try these video lessons and learn fast. | Correct




comments powered by Disqus
↑ Back to top | Tablatures and chords are parodies/interpretations of the original songs. You may use it for private study, scholarship, research or language learning purposes only