» » »

Unwritten Law, Lost Control Bass tabs (ver.1)

Artists:  A B C D E F G H I J K L M N O P Q R S T U V W X Y Z # 

Lost Control Bass tabs (ver.1)

Unwritten Law Tabs
Rating:
0/5 (0 votes)
Hard to play? Try these video lessons and learn fast.
                Drop down half a step.

Intro 
1st bit  x1
|--------------------           |--------
|--------------------           |--------
|-----------57----57-  x3       |--------  x1
|00000-0000----00----           |3>--5>--
 
2nd bit  x1
|--------------------           |--------
|--------------------           |--------
|-----------57----57-  x3       |----5>--  x1
|00000-0000----00----           |3>------

Verse  x2
|--------------------------------------------------
|--------------------------------------------------
|----------------------3333-3-3---------------5555-
|0000-0-0---3333-3-3-------------5555-5-57777------

Chorus  x1
|------------------------------------------------
|------------------------------------------------
|-------10>-3>------5-5-7>-7530----10>-3>-----5>-
|0>--3>---------5>--------------3>---------5>----

Intro 2nd bit  x1

Verse  x2

Chorus x1

Bass solo
|--------------------          |----
|--------------------          |----
|-----------57----57-  x3      |----
|00000-0000----00----          |0>--

Intro 2nd bit  x1

Chorus x1

Last chorus
|------------------------------------
|------------------------------------
|--------3>-----5>-7>------3>-----5>-
|0>--3>------5>--------3>------5>----

Bass solo to end.

Good song by a good band! Think its pretty much spot on. 
Please rate and comment or correct. thanks.
            

comments powered by Disqus
↑ Back to top | Unwritten Law Bass for Lost Control. Lyrics for acoustic guitar and electric guitar. Tablatures and chords are parodies/interpretations of the original songs. You may use it for private study, scholarship, research or language learning purposes only