» » »

Unwritten Law, Lonsome Tabs (ver.1)

Artists:  A B C D E F G H I J K L M N O P Q R S T U V W X Y Z # 

Lonsome Tabs (ver.1)

Unwritten Law Tabs
Rating:
0/5 (0 votes)
Lonsome lessons Tabs too difficult? Try these video lessons and learn fast
                PROPS GO TO: Chris

INTRO:
                             (A)         (G)     (B)  
---------------------------||-----------|------------||
---------------------------||-----------|------------||
---------------------------||-----------|------------||
---------------------------||-----------|---------4--||
-----5-7---------------5-7-||--7-/-/-/--|--5--/---2--||
---0------5-7--3-5--0------||--5-/-/-/--|--3--/------||

VERSE:
(E)                       (F#)       (A)        (E)        (E)  
-----------------------||----------|----------|----------|----------||
------9------9------9--||----------|----------|----------|----------||
------9------9------9--||----------|----------|----------|----------||
------9------9------9--||----------|----------|----------|----------||
--7-7----7-7----7-7----||--4-/-/-/-|--7-/-/-/-|--2-/-/-/-|--2-/-/-/-||
-----------------------||--2-/-/-/-|--5-/-/-/-|--0-/-/-/-|--0-/-/-/-||

 (F#)       (G#)        (A)        (A)
----------|----------||----------|----------||
----------|----------||----------|----------||
----------|----------||----------|----------||
----------|----------||----------|----------||
--4-/-/-/-|--6-/-/-/-||--7-/-/-/-|--7-/-/-/-||
--2-/-/-/-|--4-/-/-/-||--5-/-/-/-|--5-/-/-/-||.....

 (B)        (A)        (G#)       (B)  
----------|----------|----------|----------||
----------|----------|----------|----------||
----------|----------|----------|----------||
----------|----------|----------|----------||
--9-/-/-/-|--7-/-/-/-|--6-/-/-/-|--9-/-/-/-||
--7-/-/-/-|--5-/-/-/-|--4-/-/-/-|--7-/-/-/-|| back to intro


Lyrics:

Well I'm here, but I don't wanta stay
Cause you're not around
And I'm feeling lonely
Same old episode for me, heading for catastrophy
And I can see that its

Chorus:
Association with the past
So think about it
It's like a tie that did not last
Don't move so fast
Don't run
Cause you might find out, find out I'm the one
And I still feel lonesome

Nothing's changed, it just gets rearranged when
You come around, so now what's your story
You were never there for me
So I'm going out to see
Cause I can see that it's...

Association with the past
So think about it
It's like a tie that did not last
Don't move so fast
Don't run
Cause you might find out, find out I'm the one
And I still feel lonesome

Now you're here, but I don't wanta stay
Cause you weren't around, now you say you're sorry
And nothing's changed, it's just been rearranged
So stay down, just stay down

********************************************************************************
life's short, play hard.
rock on 
-chris
            

comments powered by Disqus
↑ Back to top | Unwritten Law Tabs for Lonsome. Lyrics for acoustic guitar and electric guitar. Tablatures and chords are parodies/interpretations of the original songs. You may use it for private study, scholarship, research or language learning purposes only