» » »

Unwritten Law, Its Alright Tabs (ver.1)

Artists:  A B C D E F G H I J K L M N O P Q R S T U V W X Y Z # 

Its Alright Tabs (ver.1)

Unwritten Law Tabs
Rating:
0/5 (0 votes)
Hard to play? Try these video lessons and learn fast.
                thing stuffed up, u know how it is)

I seriously don’t c how no one has tabbed this already, its one of the best UL’s
songs, but still it gives me a reason 2 tab it. BTW, this is my first tab, it took
me about an hour, rate it plz.

Intro: (some weird effect, duno wat it is)

E -----------------------------------------3-2-------------------------
B ---------------1---3---------------------3-3-------------------1---3-
G –2/4\2-0---0-------------0-2/4\2-0---0---------------------0---------
D -------------2---2---2-2---------------2-----0-0-0-2/4-0-----2---2---
A ---------3-----------------------------------------------3-----------
E -----------------------------------0---------------------------------

E --------------------3-2-------------
B --------------------3-3-------------
G ---0--2/4\2-0---0-------------------
D -2----------------2-----0-0-0-2/4-0-
A ------------------------------------
E --------------0---------------------

Verse: (that effect again)

Simple Chords, C and Em

   C    Em     C    Em

E –0-   -0-   -0-   -0-
B –1-   -0-   -1-   -0-
G –0-   -0-   -0-   -0-
D –2-   -2-   -2-   -2-
A –3-   -2-   -3-   -2-
E ---   -0-   ---   -0-

Pre Chorus: (distortion)

E ---------------------------3---0-----3---
B -------------------------0---0-----0---0-
G -----------------------------------------
D -5-5--5-5--7-7--10-10--2---------2-------
A -3-3--3-3--7-7--10-10--2---------2-------
E -3-3--3-3--5-5---8--8--0---------0-------

E -------------------------7---------7-----
B ---------------------------8---------8---
G -----------------------9-------9-9-----9-
D -5-5--5-5--7-7--10-10--9-----9---9-----9-
A -5-5--5-5--7-7--10-10--7---------7-----7-
E -3-3--3-3--5-5---8--8--------------------

Chorus: (distortion)

E ---------------0--------------------0--------------------0-----
B -------------0---0----------------0---0----------------0---0---
G –7-7--7-7----------0-–7-7--7-7----------0-–7-7--7-7----------0-
D –7-7--7-7--2---------–7-7--7-7--2---------–7-7--7-7--2---------
A –5-5--5-5--2---------–5-5--5-5--2---------–5-5--5-5--2---------
E -----------0--------------------0--------------------0---------

E ---------------------------------------------------------------------
B -----1-----------0-----------1-----------------1-----------0-------1-
G ---2---2-------0---0-------0---0-------------2---2-------0---0-----0-
D ---------2-----------2-----------2-----------------2-----------2---2-
A –0---------0-2---------0-3---------3-3-3-2-0---------0-2---------0-3-
E ---------------------------------------------------------------------

Intro/Pre verse:
Verse:
Pre Chorus:
Chorus:
Intro/Pre verse:
Verse:
Pre Chorus:
Chorus:
Intro/Pre verse: x2
Pre Chorus:
Chorus:
Intro/Pre verse:
            

comments powered by Disqus
↑ Back to top | Unwritten Law Tabs for Its Alright. Lyrics for acoustic guitar and electric guitar. Tablatures and chords are parodies/interpretations of the original songs. You may use it for private study, scholarship, research or language learning purposes only