>
 >
How You Feel

How You Feel Guitar Tabs

Unwritten Law - How You Feel chords, tabs, tablatures, lyrics

Guitar lessons | Add/correct | Request | Top 50 tabs Artists:  A B C D E F G H I J K L M N O P Q R S T U V W X Y Z 0-9

How You Feel Guitar Tabs – Unwritten Law

CD, Sheet music, Poster

Do you like How You Feel? Share with your friends now
Bass TabsTabsTabs v2
Intro              brought to you by "full throdel"
e|-----------------------------------------4-4--4-3--------------------------| 
B|-----------------------------------------3-3--3-3--------------------------| 
G|-x-x-5-5--5--x-x-5-5--5--x-x-5-5--5--x-x-5-5--5-5--------------------------| 
D|-x-x-5-5--5--x-x-3-3--3--x-x-5-5--5--x-x-5-5--5-5--------------------------| 
A|-x-x-3-3--3--x-x-3-3--3--x-x-3-3--3--x-x-3-3--3-3--------------------------| 
E|---------------------------------------------------------------------------| 

Verse-reggae rhythmn 
e|-8-8--8--5-5--5--7-7--7---3-3--3-3--2--------------------------------------| 
B|-8-8--8--5-5--5--6-6--6---2-2--2-2--2--------------------------------------| 
G|-8-8--8--5-5--5--7-7--7---3-3--3-3--3--------------------------------------| 
D|---------------------------------------------------------------------------| 
A|---------------------------------------------------------------------------| 
E|---------------------------------------------------------------------------| 

Bridge-note-Palm mute when needed cause it changes every time. 
e|---------------------------------------------------------------------------| 
B|---------------------------------------------------------------------------| 
G|-2-2-2-2-------------------------------------------------------------------| 
D|-2-2-2-2-x-x-x-5-x--3-3--3-3--5-5--5--5--5-5-------------------------------| 
A|-0-0-0-0-x-x-x-5-x--3-3--3-3--5-5--5--5--5-5-------------------------------| 
E|---------x-x-x-3-x--1-1--1-1--3-3--3--3--3-3-------------------------------| 

Chorus 
e|---------------------------------------------------------------------------| 
B|---------------------------------------------------------------------------| 
G|-5-5-5-5-5-5-5-5---5-5-5-5-5-5-5-5--2-2-2-2-2------------------------------| 
D|-5-5-5-5-5-5-5-5---5-5-5-5-5-5-5-5--2-2-2-2-2--5-5-5--3-3-3-3--5-5-5-------| 
A|-3-3-3-3-3-3-3-3---2-2-2-2-2-2-2-2--0-0-0-0-0--5-5-5--3-3-3-3--5-5-5-------| 
E|-----------------------------------------------3-3-3--1-1-1-1--3-3-3-------| 

2nd Chorus *=Play 8 times 
e|---------------------------------------------------------------------------| 
B|---*--*--*---*----*--*--*---*----------------------------------------------| 
G|--5--7--9--12----5--7--9--10-----------------------------------------------| 
D|---------------------------------------------------------------------------| 
A|--3--5--7--10----3--5--7--8------------------------------------------------| 
E|---------------------------------------------------------------------------| 

Bridge 2 
e|-------------------3-3--3-3------------------------------------------------| 
B|-------------------4-4--4-4--------4---------------------------------------| 
G|--x-x-5-5--5-5-x-x-5-5--5-5------5-----------------------------------------| 
D|--x-x-5-5--5-5-x-x-5-5--5-5----5-------------------------------------------| 
A|--x-x-3-3--3-3-x-x-3-3--3-3--3----------------2----------------------------| 
E|--------------------------------------3-3--5-------------------------------| 

Outro 
e|---------------------------------------------------------------------------| 
B|---------------------------------------------------------------------------| 
G|--x-x-5-5--5-5--x-x-5-5--5-5-----------------------------------------------| 
D|--x-x-5-5--5-5--x-x-3-3--3-3-----------------------------------------------| 
A|--x-x-3-3--3-3--x-x-3-3--3-3-----------------------------------------------| 
E|---------------------------------------------------------------------------| 
===============================================================================





Comments


Popular Unwritten Law tabs & chords
California Sky Bass Tabs
Lost Control 1 Bass Tabs
Walrus Bass Tabs
She Says Chords
Babalon Tabs
Denied Tabs
Falling Down Tabs
Lost Control Tabs
Rescue Me 2 Tabs
Ww Iii Tabs


Song lyrics



↑ Back to top | Tablatures and chords are parodies/interpretations of the original songs. You may use it for private study, scholarship, research or language learning purposes only
© 2014 AZChords.com Contact us | Privacy policy | DMCA | Add/correct tabs | Request tabs | Top 50 tabs