» » »

How You Feel Bass tabs (ver.1)

Artists:  A B C D E F G H I J K L M N O P Q R S T U V W X Y Z # 

How You Feel Bass tabs (ver.1)

Unwritten Law
Rating:
0/5 (0 votes)

Hard to play? Try these video lessons and learn fast.
                verse
G|-------------------------|
D|----5-----2--------------|
A|-3-3-3-0-0-0-----2-----5-|
E|-------------0-0-0--3-3-3|

(so hard to let you go)
G|------------------|
D|------------------|
A|------------------|
E|-5-55-33-1-111-333|

Chorus
G|---------------------------------|
D|--------------------------3-2----|
A|-33333333-00000000-----------32h3|
E|------------------00000000-------|

verse (he messes around with it a little bit but nothing diffrent)
G|-------------------------|
D|----5-----2--------------|
A|-3-3-3-0-0-0----2------5-|
E|-------------0-0-0--3-3-3|

(so hard to let you go)
G|------------------|
D|------------------|
A|------------------|
E|-5-55-33-1-111-333|

Chorus
G|----------------------------------|
D|--------------------------3-2-----|
A|-33333333-00000000-----------32h3-|
E|-------------------00000000-------|

(but im frustrated)
G|-----------------------------------|
D|-----------------------------------|
A|-00000000------------------00003333|
E|---------33333333-00000000---------|
            
Hard to play? Try these video lessons and learn fast. | Correct




comments powered by Disqus
↑ Back to top | Tablatures and chords are parodies/interpretations of the original songs. You may use it for private study, scholarship, research or language learning purposes only