>
 >
Holiday

Holiday Guitar Tabs

Unwritten Law - Holiday chords, tabs, tablatures, lyrics

Guitar lessons | Add/correct | Request | Top 50 tabs Artists:  A B C D E F G H I J K L M N O P Q R S T U V W X Y Z 0-9

Holiday Guitar Tabs – Unwritten Law

CD, Sheet music, Poster

Do you like Holiday? Share with your friends now
Bass TabsTabsTabs v2
INTRO: 
{On the intro, gtr 1 plays alone twice, then is joined by gtr 2; 
they play together four times.} 

Gtr. 1 
e|--2---2---2---2---2-----0---0---0---5---5---------------------------| 
B|0---0---0---0---0----0----0---0---0---0---0-------------------------| 
G|--------------------------------------------------------------------| 
D|--------------------------------------------------------------------| 
A|--------------------------------------------------------------------| 
E|--------------------------------------------------------------------| 
Gtr. 2 
e|--------------------------------------------------------------------| 
B|--------------------------------------------------------------------| 
G|--4-----------------------------------------------------------------| 
D|--4----------------------2----------7-------------------------------| 
A|--2----------------------2----------7-------------------------------| 
E|-------------------------0----------5-------------------------------| 

Verse: 
e|--------------------------------------------------------------------| 
B|--------------------------------------------------------------------| 
G|--4--4------------------------4--4----------------------------------| 
D|--4--4------------------------4--4----------------------------------| 
A|--2--2------------------------2--2----------------------------------| 
E|--------------------------------------------------------------------| 
 1-"Sometimes life can knock you down, just gotta pick your ass up 
 2-"   Probably don't matter any way, cause in the end it's gonna 
e|--------------------------------------------------------------------| 
B|--------------------------------------------------------------------| 
G|--------------------------------------------------------------------| 
D|-7--------2------7--------2-----------------------------------------| 
A|-7--------2------7--------2-----------------------------------------| 
E|-5--------0------5--------0-----------------------------------------| 
1- off the ground; off the ground." 
2- be  0h-kay cause life a hol -" {to chorus} 

Chorus: 
Gtr 1 
e|--2---2---2---2---2-----0---0---0---5---5---------------------------| 
B|0---0---0---0---0----0----0---0---0---0---0-------------------------| 
G|--------------------------------------------------------------------| 
D|--------------------------------------------------------------------| 
A|--------------------------------------------------------------------| 
E|--------------------------------------------------------------------| 
Gtr. 2 
e|--------------------------------------------------------------------| 
B|--------------------------------------------------------------------| 
G|--4-----------------------------------------------------------------| 
D|--4----------------------2----------7-------------------------------| 
A|--2----------------------2----------7-------------------------------| 
E|-------------------------0----------5-------------------------------| 
"..i- daaaaaaaaayyy......         a hol-"  {repeat chorus} 
  "Life's             a holiday"    <- background "vocals"  
Repeat verse with lyrics: 
{3} Don't wanna go and work harder/ just to keep my head above water,  
above water. 
{4} Can't hear what teacher's trying to say/ cause it makes no sense now 
anyway, and tomorrow's another  {to bridge} 

Bridge: 
e|--------------------------------------------------------------------| 
B|--------------------------------------------------------------------| 
G|---------------4----------------------------------------------------| 
D|--4------------4---------------4------------------------------------| 
A|--4------------2---------------4------------------------------------| 
E|--2----------------------------2------------------------------------| 
  "day       and I just want to play, cause I 
e|--------------------------------------------------------------------| 
B|--------------------------------------------------------------------| 
G|--4-----------------9----------------11-----------------------------| 
D|--4--------4--------9----------------11-----------------------------| 
A|--2--------4--------7----------------9------------------------------| 
E|-----------2--------------------------------------------------------| 
   know that we will be oh-kay cause life's a hol-i- "{to chorus} 
Repeat chorus four times, then: 

e|--------------------------------------------------------------------| 
B|--------------------------------------------------------------------| 
G|--------------------------9--9-9--------9--9-9----------------------| 
D|-6--6--------------2--2---9--9-9--2--2--9--9-9----------------------| 
A|-6--6--------------2--2---7--7-7--2--2--7--7-7----------------------| 
E|-4--4--------------0--0-----------0--0------------------------------| 
       "I'm sorry,                      for my- 
       my blasphemy;" 
      It's just my way,                 and I'll" 

e|--------------------------------------------------------------------| 
B|--------------------------------------------------------------------| 
G|--------------------------------------------------------------------| 
D|-7------------4-----------------------------------------------------| 
A|-7------------4-----------------------------------------------------| 
E|-5------------2-----------------------------------------------------| 
   stay, because life's a hol- i- " 

Outro:  {Gtr 1 twice, then repeats with gtr 2 until fade} 

Gtr 1 
e|--7---7---7---7---7-----5---5---5--10--10---------------------------| 
B|5---5---5---5---5----5----5---5---5---5---5-------------------------| 
G|--------------------------------------------------------------------| 
D|--------------------------------------------------------------------| 
A|--------------------------------------------------------------------| 
E|--------------------------------------------------------------------| 
Gtr. 2 
e|--------------------------------------------------------------------| 
B|--------------------------------------------------------------------| 
G|--9---------------------------------7-------------------------------| 
D|--9----------------------7----------7-------------------------------| 
A|--7----------------------7----------5-------------------------------| 
E|-------------------------5------------------------------------------| 
   "Life's           a holiday,"





Comments


Popular Unwritten Law tabs & chords
Lost Control 1 Bass Tabs
California Sun Tabs
Elva Tabs
Evolution Tabs
Fight Tabs
She Says Tabs
Sorry 1 Tabs
Teenage Suicide 1 Tabs
The Legend Of Johnny And Sarah Tabs
Cpk Ukulele


Song lyrics



↑ Back to top | Tablatures and chords are parodies/interpretations of the original songs. You may use it for private study, scholarship, research or language learning purposes only
© 2014 AZChords.com Contact us | Privacy policy | DMCA | Add/correct tabs | Request tabs | Top 50 tabs