>
 >
Get Up

Get Up Guitar Tabs

Unwritten Law - Get Up chords, tabs, tablatures, lyrics

Guitar lessons | Add/correct | Request | Top 50 tabs Artists:  A B C D E F G H I J K L M N O P Q R S T U V W X Y Z 0-9

Get Up Guitar Tabs – Unwritten Law

CD, Sheet music, Poster

Do you like Get Up? Share with your friends now
Tabs
Unwritten Law - Get Up
Here's to the Mourning

awesome song right here... one of my favorite songs on this album. this song (along with
all the songs in the album) is in drop d then down another half step (Eb Bb Gb Db Ab Db)


key:

| . - palm mute
| / - slide up
| \ - slide down
| x - mute note
|(7)- ghost note

thats all you need to know for this tab

-------------------------------------------------------------------------------
Guitar 1
-------------------------------------------------------------------------------

intro

Eb|------------------------------------------------------------|
Bb|------------------------------------------------------------|
Gb|--77777777-77777777-77777777-77777777-77777777-777777-------|
Db|--xxxxxxxx-xxxxxxxx-xxxxxxxx-xxxxxxxx-xxxxxxxx-xxxxxx-(7)\--|
Ab|--55555555-55555555-55555555-55555555-55555555-555555-(7)\--| (x1)
Db|------------------------------------------------------(7)\--|

Eb|--------------------------------|
Bb|--------------------------------|
Gb|--------------------------------|
Db|--0--3-0-3-5-3-0--7--0-3-0-3-5--|
Ab|--0--3-0-3-5-3-0--7--0-3-0-3-5--| (x2)
Db|--0--3-0-3-5-3-0--7--0-3-0-3-5--|

verse 

Eb|-----------------------------------------------------------|
Bb|-----------------------------------------------------------|
Gb|-----------------------------------------------------------|
Db|--0-0---0--0--0--0--00-3-0-3-0--333---3-2-2--2-1-1---------|
Ab|--0-0---0--0--0--0--00-3-0-3-0--333---3-2-2--2-1-1--3-5-0--| (x1)
Db|--0-0---0--0--0--0--00-3-0-3-0--333---3-2-2--2-1-1---------|
     . .   .  .  .  .  .. . . . .  ...

Eb|-----------------------------------------------------|
Bb|-----------------------------------------------------|
Gb|-----------------------------------------------------|
Db|--0--0--0--0--00-3-0-3-0--333---3-2-2--2/7-7---------|
Ab|--0--0--0--0--00-3-0-3-0--333---3-2-2--2/7-7--3-5-0--| (x1)
Db|--0--0--0--0--00-3-0-3-0--333---3-2-2--2/7-7---------|
     .  .  .  .  .. . . . .  ...

Eb|----------------------------------------------------------------|
Bb|----------------------------------------------------------------|
Gb|----------------------------------------------------------------|
Db|--0-0---0--0--0--0--00-3-0-3-0--888--8--8--8-7-7--7-5-5---------|
Ab|--0-0---0--0--0--0--00-3-0-3-0--888--8--8--8-7-7--7-5-5--3-5-0--| (x1)
Db|--0-0---0--0--0--0--00-3-0-3-0--888--8--8--8-7-7--7-5-5---------|
     . .   .  .  .  .  .. . . . .  ...  .  . 

Eb|----------------------------------------------|
Bb|----------------------------------------------|
Gb|-----------------------------------x555-6666--|
Db|--0--0--0--0--00-3-0-3-0--77777777-x555-6666--|
Ab|--0--0--0--0--00-3-0-3-0--77777777-x333-4444--| (x1)
Db|--0--0--0--0--00-3-0-3-0--77777777------------|
     .  .  .  .  .. . . . .  .  

chorus

Eb|----------------------------------------------|
Bb|----------------------------------------------|
Gb|----------------------------------------------|
Db|--0---------9---------7---------5---------3~--|
Ab|--0--(x16)--9--(x16)--7--(x16)--5--(x13)--3~--| (x2)
Db|--0---------9---------7---------5---------3~--|

post-chorus

Eb|--------------------------------|
Bb|--------------------------------|
Gb|--------------------------------|
Db|--0--3-0-3-5-3-0--7--0-3-0-3-5--|
Ab|--0--3-0-3-5-3-0--7--0-3-0-3-5--| (x1)
Db|--0--3-0-3-5-3-0--7--0-3-0-3-5--|

Eb|------------------------------|
Bb|------------------------------|
Gb|------------------------------|
Db|--0--3-0-3-5-3-0--7--0-3-0-3--|
Ab|--0--3-0-3-5-3-0--7--0-3-0-3--| (x1)
Db|--0--3-0-3-5-3-0--7--0-3-0-3--|

verse 

Eb|-----------------------------------------------------------|
Bb|-----------------------------------------------------------|
Gb|-----------------------------------------------------------|
Db|--0-0---0--0--0--0--00-3-0-3-0--333---3-2-2--2-1-1---------|
Ab|--0-0---0--0--0--0--00-3-0-3-0--333---3-2-2--2-1-1--3-5-0--| (x1)
Db|--0-0---0--0--0--0--00-3-0-3-0--333---3-2-2--2-1-1---------|
     . .   .  .  .  .  .. . . . .  ...

Eb|-----------------------------------------------------|
Bb|-----------------------------------------------------|
Gb|-----------------------------------------------------|
Db|--0--0--0--0--00-3-0-3-0--333---3-2-2--2/7-7---------|
Ab|--0--0--0--0--00-3-0-3-0--333---3-2-2--2/7-7--3-5-0--| (x1)
Db|--0--0--0--0--00-3-0-3-0--333---3-2-2--2/7-7---------|
     .  .  .  .  .. . . . .  ...

Eb|----------------------------------------------------------------|
Bb|----------------------------------------------------------------|
Gb|----------------------------------------------------------------|
Db|--0-0---0--0--0--0--00-3-0-3-0--888--8--8--8-7-7--7-5-5---------|
Ab|--0-0---0--0--0--0--00-3-0-3-0--888--8--8--8-7-7--7-5-5--3-5-0--| (x1)
Db|--0-0---0--0--0--0--00-3-0-3-0--888--8--8--8-7-7--7-5-5---------|
     . .   .  .  .  .  .. . . . .  ...  .  . 

Eb|----------------------------------------------|
Bb|----------------------------------------------|
Gb|-----------------------------------x555-6666--|
Db|--0--0--0--0--00-3-0-3-0--77777777-x555-6666--|
Ab|--0--0--0--0--00-3-0-3-0--77777777-x333-4444--| (x1)
Db|--0--0--0--0--00-3-0-3-0--77777777------------|
     .  .  .  .  .. . . . .  .

chorus

Eb|----------------------------------------------|
Bb|----------------------------------------------|
Gb|----------------------------------------------|
Db|--0---------9---------7---------5---------3~--|
Ab|--0--(x16)--9--(x16)--7--(x16)--5--(x13)--3~--| (x1)
Db|--0---------9---------7---------5---------3~--|

Eb|------------------------------------------|
Bb|------------------------------------------|
Gb|------------------------------------------|
Db|--0---------9---------7---------5---------|
Ab|--0--(x16)--9--(x16)--7--(x16)--5--(x16)--| (x1)
Db|--0---------9---------7---------5---------|

bridge

Eb|---------------------------------|
Bb|---------------------------------|
Gb|---------------------------------|
Db|--3--3-0-3-0-3/5--5-0-3-5-3--0~--|
Ab|--3--3-0-3-0-3/5--5-0-3-5-3--0~--| (x1)
Db|--3--3-0-3-0-3/5--5-0-3-5-3--0~--|

Eb|----------------------------------|
Bb|----------------------------------|
Gb|----------------------------------|
Db|--3--3-0-3-0-3-----5-0-3-5-3--0~--|
Ab|--3--3-0-3-0-3-----5-0-3-5-3--0~--| (x1)
Db|--3--3-0-3-0-3/10--5-0-3-5-3--0~--|

Eb|---------------------------------|
Bb|---------------------------------|
Gb|---------------------------------|
Db|--3--3-0-3-0-3/5--5-0-3-5-3--0~--|
Ab|--3--3-0-3-0-3/5--5-0-3-5-3--0~--| (x1)
Db|--3--3-0-3-0-3/5--5-0-3-5-3--0~--|

Eb|----------------------------------|
Bb|----------------------------------|
Gb|----------------------------------|
Db|--3--3-0-3-0-3-----5-0-3-5-3--0~--|
Ab|--3--3-0-3-0-3-----5-0-3-5-3--0~--| (x1)
Db|--3--3-0-3-0-3/10--5-0-3-5-3--0~--|

2nd bridge

Eb|-------------------------------------------|
Bb|-------------------------------------------|
Gb|--111111--11--11-11-11--11--11--11--11-11--|
Db|---x-x-x---x---x--x--x---x---x---x---x--x--|
Ab|---9-9-9---9---9--9--9---9---9---9---9--9--| (x1)
Db|-------------------------------------------|

Eb|----------------------------------|
Bb|----------------------------------|
Gb|--1111\9--9--9-9-9--9--9--9--9-9--|
Db|---x-x\x--x--x-x-x--x--x--x--x-x--|
Ab|---9-9\7--7--7-7-7--7--7--7--7-7--| (x1)
Db|----------------------------------|

Eb|------------------------------------------|
Bb|------------------------------------------|
Gb|--99/12--12--12-12-12--12--12--12--12/14--|
Db|--xx/-x---x---x--x--x---x---x---x---x/-x--|
Ab|--77/10--10--10-10-10--10--10--10--10/12--| (x1)
Db|------------------------------------------|

Eb|---------------------------------------|
Bb|---------------------------------------|
Gb|--11--11--11-11-11--11--11--11--11-11--|
Db|---x---x---x--x--x---x---x---x---x--x--|
Ab|---9---9---9--9--9---9---9---9---9--9--| (x1)
Db|---------------------------------------|

*repeat second bridge

chorus

Eb|----------------------------------------------|
Bb|----------------------------------------------|
Gb|----------------------------------------------|
Db|--0---------9---------7---------5---------3~--|
Ab|--0--(x16)--9--(x16)--7--(x16)--5--(x13)--3~--| (x4)
Db|--0---------9---------7---------5---------3~--|

outro

Eb|--------------------------------|
Bb|--------------------------------|
Gb|--------------------------------|
Db|--0--3-0-3-5-3-0--7--0-3-0-3-5--|
Ab|--0--3-0-3-5-3-0--7--0-3-0-3-5--| (x1)
Db|--0--3-0-3-5-3-0--7--0-3-0-3-5--|

Eb|------------------------------|
Bb|------------------------------|
Gb|------------------------------|
Db|--0--3-0-3-5-3-0--7--0-3-0-3--|
Ab|--0--3-0-3-5-3-0--7--0-3-0-3--| (x1)
Db|--0--3-0-3-5-3-0--7--0-3-0-3--|

Eb|--------------------------------|
Bb|--------------------------------|
Gb|--------------------------------|
Db|--0--3-0-3-5-3-0--7--0-3-0-3-5--|
Ab|--0--3-0-3-5-3-0--7--0-3-0-3-5--| (x1)
Db|--0--3-0-3-5-3-0--7--0-3-0-3-5--|

Eb|------------------------------|
Bb|------------------------------|
Gb|------------------------------|
Db|--0--3-0-3-5-3-0--7--0-3-5-3--|
Ab|--0--3-0-3-5-3-0--7--0-3-5-3--| (x1)
Db|--0--3-0-3-5-3-0--7--0-3-5-3--|

end on

Eb|------|
Bb|------|
Gb|------|
Db|--0~--|
Ab|--0~--| (x1)
Db|--0~--|


-------------------------------------------------------------------------------
Guitar 2
-------------------------------------------------------------------------------

ok i think the second guitar plays the exact same thing as the first, except for the chorus...

intro

Eb|--------------------------------|
Bb|--------------------------------|
Gb|--------------------------------|
Db|--0--3-0-3-5-3-0--7--0-3-0-3-5--|
Ab|--0--3-0-3-5-3-0--7--0-3-0-3-5--| (x2)
Db|--0--3-0-3-5-3-0--7--0-3-0-3-5--|

verse 

Eb|-----------------------------------------------------------|
Bb|-----------------------------------------------------------|
Gb|-----------------------------------------------------------|
Db|--0-0---0--0--0--0--00-3-0-3-0--333---3-2-2--2-1-1---------|
Ab|--0-0---0--0--0--0--00-3-0-3-0--333---3-2-2--2-1-1--3-5-0--| (x1)
Db|--0-0---0--0--0--0--00-3-0-3-0--333---3-2-2--2-1-1---------|
     . .   .  .  .  .  .. . . . .  ...

Eb|-----------------------------------------------------|
Bb|-----------------------------------------------------|
Gb|-----------------------------------------------------|
Db|--0--0--0--0--00-3-0-3-0--333---3-2-2--2/7-7---------|
Ab|--0--0--0--0--00-3-0-3-0--333---3-2-2--2/7-7--3-5-0--| (x1)
Db|--0--0--0--0--00-3-0-3-0--333---3-2-2--2/7-7---------|
     .  .  .  .  .. . . . .  ...

Eb|----------------------------------------------------------------|
Bb|----------------------------------------------------------------|
Gb|----------------------------------------------------------------|
Db|--0-0---0--0--0--0--00-3-0-3-0--888--8--8--8-7-7--7-5-5---------|
Ab|--0-0---0--0--0--0--00-3-0-3-0--888--8--8--8-7-7--7-5-5--3-5-0--| (x1)
Db|--0-0---0--0--0--0--00-3-0-3-0--888--8--8--8-7-7--7-5-5---------|
     . .   .  .  .  .  .. . . . .  ...  .  . 

Eb|----------------------------------------------|
Bb|----------------------------------------------|
Gb|-----------------------------------x555-6666--|
Db|--0--0--0--0--00-3-0-3-0--77777777-x555-6666--|
Ab|--0--0--0--0--00-3-0-3-0--77777777-x333-4444--| (x1)
Db|--0--0--0--0--00-3-0-3-0--77777777------------|
     .  .  .  .  .. . . . .  .  

chorus

Eb|----14----14----14----14----14-----|
Bb|------15----15----15----15----15~--|
Gb|--14----14----14----14----14-------|
Db|-----------------------------------|
Ab|-----------------------------------| (x8)
Db|-----------------------------------|


post-chorus

Eb|--------------------------------|
Bb|--------------------------------|
Gb|--------------------------------|
Db|--0--3-0-3-5-3-0--7--0-3-0-3-5--|
Ab|--0--3-0-3-5-3-0--7--0-3-0-3-5--| (x1)
Db|--0--3-0-3-5-3-0--7--0-3-0-3-5--|

Eb|------------------------------|
Bb|------------------------------|
Gb|------------------------------|
Db|--0--3-0-3-5-3-0--7--0-3-0-3--|
Ab|--0--3-0-3-5-3-0--7--0-3-0-3--| (x1)
Db|--0--3-0-3-5-3-0--7--0-3-0-3--|

verse 

Eb|-----------------------------------------------------------|
Bb|-----------------------------------------------------------|
Gb|-----------------------------------------------------------|
Db|--0-0---0--0--0--0--00-3-0-3-0--333---3-2-2--2-1-1---------|
Ab|--0-0---0--0--0--0--00-3-0-3-0--333---3-2-2--2-1-1--3-5-0--| (x1)
Db|--0-0---0--0--0--0--00-3-0-3-0--333---3-2-2--2-1-1---------|
     . .   .  .  .  .  .. . . . .  ...

Eb|-----------------------------------------------------|
Bb|-----------------------------------------------------|
Gb|-----------------------------------------------------|
Db|--0--0--0--0--00-3-0-3-0--333---3-2-2--2/7-7---------|
Ab|--0--0--0--0--00-3-0-3-0--333---3-2-2--2/7-7--3-5-0--| (x1)
Db|--0--0--0--0--00-3-0-3-0--333---3-2-2--2/7-7---------|
     .  .  .  .  .. . . . .  ...

Eb|----------------------------------------------------------------|
Bb|----------------------------------------------------------------|
Gb|----------------------------------------------------------------|
Db|--0-0---0--0--0--0--00-3-0-3-0--888--8--8--8-7-7--7-5-5---------|
Ab|--0-0---0--0--0--0--00-3-0-3-0--888--8--8--8-7-7--7-5-5--3-5-0--| (x1)
Db|--0-0---0--0--0--0--00-3-0-3-0--888--8--8--8-7-7--7-5-5---------|
     . .   .  .  .  .  .. . . . .  ...  .  . 

Eb|----------------------------------------------|
Bb|----------------------------------------------|
Gb|-----------------------------------x555-6666--|
Db|--0--0--0--0--00-3-0-3-0--77777777-x555-6666--|
Ab|--0--0--0--0--00-3-0-3-0--77777777-x333-4444--| (x1)
Db|--0--0--0--0--00-3-0-3-0--77777777------------|
     .  .  .  .  .. . . . .  .

chorus

Eb|----14----14----14----14----14-----|
Bb|------15----15----15----15----15~--|
Gb|--14----14----14----14----14-------|
Db|-----------------------------------|
Ab|-----------------------------------| (x8)
Db|-----------------------------------|

bridge

Eb|---------------------------------|
Bb|---------------------------------|
Gb|---------------------------------|
Db|--3--3-0-3-0-3/5--5-0-3-5-3--0~--|
Ab|--3--3-0-3-0-3/5--5-0-3-5-3--0~--| (x1)
Db|--3--3-0-3-0-3/5--5-0-3-5-3--0~--|

Eb|----------------------------------|
Bb|----------------------------------|
Gb|----------------------------------|
Db|--3--3-0-3-0-3-----5-0-3-5-3--0~--|
Ab|--3--3-0-3-0-3-----5-0-3-5-3--0~--| (x1)
Db|--3--3-0-3-0-3/10--5-0-3-5-3--0~--|

Eb|---------------------------------|
Bb|---------------------------------|
Gb|---------------------------------|
Db|--3--3-0-3-0-3/5--5-0-3-5-3--0~--|
Ab|--3--3-0-3-0-3/5--5-0-3-5-3--0~--| (x1)
Db|--3--3-0-3-0-3/5--5-0-3-5-3--0~--|

Eb|----------------------------------|
Bb|----------------------------------|
Gb|----------------------------------|
Db|--3--3-0-3-0-3-----5-0-3-5-3--0~--|
Ab|--3--3-0-3-0-3-----5-0-3-5-3--0~--| (x1)
Db|--3--3-0-3-0-3/10--5-0-3-5-3--0~--|

no 2nd bridge for this guitar

chorus

Eb|----14----14----14----14----14-----|
Bb|------15----15----15----15----15~--|
Gb|--14----14----14----14----14-------|
Db|-----------------------------------|
Ab|-----------------------------------| (x16)
Db|-----------------------------------|


outro

Eb|--------------------------------|
Bb|--------------------------------|
Gb|--------------------------------|
Db|--0--3-0-3-5-3-0--7--0-3-0-3-5--|
Ab|--0--3-0-3-5-3-0--7--0-3-0-3-5--| (x1)
Db|--0--3-0-3-5-3-0--7--0-3-0-3-5--|

Eb|------------------------------|
Bb|------------------------------|
Gb|------------------------------|
Db|--0--3-0-3-5-3-0--7--0-3-0-3--|
Ab|--0--3-0-3-5-3-0--7--0-3-0-3--| (x1)
Db|--0--3-0-3-5-3-0--7--0-3-0-3--|

Eb|--------------------------------|
Bb|--------------------------------|
Gb|--------------------------------|
Db|--0--3-0-3-5-3-0--7--0-3-0-3-5--|
Ab|--0--3-0-3-5-3-0--7--0-3-0-3-5--| (x1)
Db|--0--3-0-3-5-3-0--7--0-3-0-3-5--|

Eb|------------------------------|
Bb|------------------------------|
Gb|------------------------------|
Db|--0--3-0-3-5-3-0--7--0-3-5-3--|
Ab|--0--3-0-3-5-3-0--7--0-3-5-3--| (x1)
Db|--0--3-0-3-5-3-0--7--0-3-5-3--|

end on

Eb|------|
Bb|------|
Gb|------|
Db|--0~--|
Ab|--0~--| (x1)
Db|--0~--|


enjoy! hopefully i will have a bass tab for this song soon... if you have any comments





Comments


Popular Unwritten Law tabs & chords
California Sky Bass Tabs
Shallow Chords
Cailin Tabs
Close Your Eyes Tabs
Elva 2 Tabs
Shallow 3 Tabs
She Says 3 Tabs
Cpk Ukulele
Seein Red Ukulele
Suzanne Ukulele


Song lyrics



↑ Back to top | Tablatures and chords are parodies/interpretations of the original songs. You may use it for private study, scholarship, research or language learning purposes only
© 2014 AZChords.com Contact us | Privacy policy | DMCA | Add/correct tabs | Request tabs | Top 50 tabs