» » »

Unwritten Law, Genocide Tabs (ver.1)

Artists:  A B C D E F G H I J K L M N O P Q R S T U V W X Y Z # 

Genocide Tabs (ver.1)

Unwritten Law Tabs
 Rating:
4/5 (4 votes)
Genocide lessons Tabs too difficult? Try these video lessons and learn fast
1
                Written by Unwritten Law

Not too accurate, but nobody else has tried it so i thought why not

Intro (Gtr.1)   Riff A						End Riff A
|--------------|----------------------------------------------------------|
|--------------|----------------------------------------------------------|
|---7------(7)-|----------------------------------------------------------|
|---7------(7)-|-5---------------------------5--------------77777--5------|
|---5------(5)-|-3-5--77777777775-5-7777777--3-5-7777777775-55555--3-5----|
|--------------|---3--55555555553-3-5555555----3-5555555553----------3----|
|
|(Gtr.2) P.S
|--------------------------------------------------------------------------|
|--------------------------------------------------------------------------|
|----------------7bh77777777777777-9-7-5-----5---------5---5-5-7br7-----7--|
|------x~~~~~x---------------------------5h7---7-5-5h7---7----------5h7--5-|
|--------------------------------------------------------------------------|
|--------------------------------------------------------------------------|

Verse
w/Riff A

Chorus (Gtr.1)
|---------------------------------------------------------|----------------|
|---------------------------------------------------------|----------------|
|---------------------------------------------------------|----------------|
|-------99999-------777777-------999999-------77777-------|----------------|
|-77777-77777-55555-555555-77777-777777-55555-55555-------|-55-5-55-5-55-5-|
|-55555-------33333--------55555--------33333-------------|-33-3-33-3-33-3-|
|							    ..   ..   ..
|Gtr.2
|-------------------------------------------------------------------------|
|-----------------------------------7777--5-------------------------------|
|-------------------------------5h7---------------------------------------|
|-------------------------------------------------------------------------|
|-------------------------------------------------------------------------|
|-------------------------------------------------------------------------|

Post Chorus
Guitar 1 w/Riff A
Guitar 2
|-------------------------|
|-------------------------|
|-----5-7p5-----5---7bhr7-|
|-5h7-------5h7---5-------|
|-------------------------|
|-------------------------|

Guitar Solo
|----9--------------------------------------------------------------------|
|-12b--12bh12121212121212r12-12-12-10----7-8-10bhr10-10-8-10-10bhr10-10---|
|-------------------------------------12----------------------------------|
|-------------------------------------------------------------------------|
|-------------------------------------------------------------------------|
|-------------------------------------------------------------------------|

|-------------------------------------------------------------------------|
|-8-10-8----8-------------------------------------------------------------|
|--------10---10\---------------------------------------------------------|
|------------------7-5-4-5-7-5-4-5-4-2-0-2------7-5-4-5-7-5-4-5-4-2-------|
|-------------------------------------------------------------------------|
|-------------------------------------------------------------------------|

Gtr.1 (PM 1 1/2 times then without)
|----------------------|
|----------------------|
|----------------------|
|-------5555-7777-9999-|
|-7777--3333-5555-7777-|
|-5555-----------------|
            
Submit corrections

comments powered by Disqus
↑ Back to top | Unwritten Law Tabs for Genocide. Lyrics for acoustic guitar and electric guitar. 1 Tablatures and chords are parodies/interpretations of the original songs. You may use it for private study, scholarship, research or language learning purposes only