» » »

Genocide Bass tabs (ver.1)

Artists:  A B C D E F G H I J K L M N O P Q R S T U V W X Y Z # 

Genocide Bass tabs (ver.1)

Unwritten Law
Rating:
5/5 (1 vote)

Hard to play? Try these video lessons and learn fast.
                ~ = let ring

Intro:
G|-------------------------------------------------------------------|
D|-------------------------------------------------------------------|
A|---------------------------------------------3---------------------|
E|-3-0-3-5-5-5-5-5-5-5-5-3-0-3-5-5-5-5-5-5-5-5---3-5-5-5-5-5-5-5-5-3~| 

Verse:
G|---------------------------------------------|
D|---------------------------------------------|
A|-3-------------------------------------------|
E|----3-5-5-5-5-5-5-5-3-5-5-5-5-5--------------|

Chorus:
G|-------------------------------------------|
D|-------------------------------------------|
A|------7-7-7-7-7-------------5-5-5-5-5-5----|
E|-5-5---------------3-3-3-3-----------------|

Solo:
G|-----------------------------------------------|
D|-----------------------------------------------|
A|------------------5-5-5-5----------------------|
E|-0-0-0-0-3-3-3-3----------5-5-5-5-5------------|

Bridge:
G|---------------------------------------------------------|
D|---------------------------------------------------------|
A|-------------------------------3-3-3-3-3-3-3-5-5-5-5-5---|
E|-5-5-5-5-5-5-5-3-3-3-3-3-3-3-----------------------------|

Ending:
G|----------------------------------------------------------------------------------|
D|----------------------------------------------------------------------------------|
A|-3-------------------------------------------------------------------3------------|
E|----3-5-5-5-5-5-5-5-3-5-5-5-5-5-5-5-3-5-5-5-5-5-5-5-3-5-5-5-5-5-5-5-----3-5-5-5---|

Order of the Song:
Intro x1
Verse x6
Chorus x4
Verse x6
Chorus x4
Solo x4
The part where is says “Your standing there”  x4
Chorus x4
ending x1
            
Hard to play? Try these video lessons and learn fast. | Correct




comments powered by Disqus
↑ Back to top | Tablatures and chords are parodies/interpretations of the original songs. You may use it for private study, scholarship, research or language learning purposes only