» » »

Falling Down Tabs (ver.1)

Artists:  A B C D E F G H I J K L M N O P Q R S T U V W X Y Z # 

Falling Down Tabs (ver.1)

Unwritten Law
Rating:
0/5 (0 votes)

Hard to play? Try these video lessons and learn fast.
                Intro 
A5 
e -------------------------------- e ------------- 
b --------------------(3 times)--- b ------------- 
g --2-2-2-0-2--------------------- g --2-2-2--0-2- 
d --2-2-2-0-2--------------------- d --2-2-2--0-2- a 
a --0-0-0-0-0--0--h3-p0--h3-p0---- a --0-0-0--0-0- 
E -----------------------------3-- E ------------- 

Verse 
e ------------------------------- 
b -----------------(2 times)----- 
g -2-2-2-0-2--------------------- 
d -2-2-2-0-2--------------------- 
a -0-0-0-0-0--0--h3-p0--h3-p0---- 
E -----------------------------3- 

A5 F5 C5 D5 
e --------------------------------------------------- b 
b --------------------------------------------------- 
g 2---------10-------------5---------------7--------- 
d 2---------10-------------5---------------7--------- 
a 0---------8--------------3---------------5--------- 
E --------------------------------------------------- 
I stop to ask a question no one wants to wonder why.... 

Chorus 
F5 C5 G5 
e ---------------------------------------------------- b 
---------------------------------------------------- 
g -10------5------------------------------------------ 
d -10------5----------5------------------------------- 
a -8-------3----------5------------------------------- 
E --------------------3------------------------------- 
The enemy of human life protects the youth in children 

F5 C5 G5 F#5 F5 
e ---------------------------------------------------- 
b ---------------------------------------------------- 
g -10---------5--------------------------------------- 
d -10---------5----------------5-x-5-x-5-x-5-4-3------ 
a -8----------3----------------5-x-5-x-5-x-5-4-3------ 
E -----------------------------3-x-3-x-3-x-3-2-1------ 
For without them there is no air to breathe 

F5 C5 G5 
e --------------------------------------------------- 
b ---------------------------------------------------- 
g -------------5-------------------------------------- 
d -3-----------5----------------5--------------------- 
a -3-----------3----------------5--------------------- 
E -1----------------------------3--------------------- 
You'll soon forget about the differences that come between us 

F5 C5 G5 F5 G5 
e ----------------------------------------- 
b ----------------------------------------- 
g -----------5----------------------------- 
d -3---------5-----------5----3-3--5------- 
a -3---------3-----------5----3-3--5------- 
E -1---------------------3----1-1--3------- 
And until then I will be...FALLING DOWN 
            
Hard to play? Try these video lessons and learn fast. | Correct




comments powered by Disqus
↑ Back to top | Tablatures and chords are parodies/interpretations of the original songs. You may use it for private study, scholarship, research or language learning purposes only