» » »

Differences Tabs (ver.1)

Artists:  A B C D E F G H I J K L M N O P Q R S T U V W X Y Z # 

Differences Tabs (ver.1)

Unwritten Law
Rating:
0/5 (0 votes)

Hard to play? Try these video lessons and learn fast.
                Intro: 
e|--------------------------------------------------------------------| 
B|--------------------------------------------------------------------| 
G|--------------------------------------------------------------------| 
D|--------------------------------------------------------------------| 
A|--------------------------------------------------------------------| 
E|--10-10----10-10---10\5--5--5-------10-10----10-10------------------| 

e|--------------------------------------------------------------------| 
B|--------------------------------------------------------------------| 
G|--------------------------------------------------------------------| 
D|--------------------------------------------------------------------| 
A|--------------------------------------------------------------------| 
E|--10\5--5---7---5---7----10-10----10-10--10\5---5---5---------------| 

e|--------------------------------------------------------------------| 
B|--------------------------------------------------------------------| 
G|--------------------------------------------------------------------| 
D|--------------------------------------------------------------------| 
A|--------------------------------------------------------------------| 
E|--10-10----10-10--10\5--5--9--7--9--10------------------------------| 

Chords: 
A D G 
e|-----------5----------10---------3--------| 
B|-----------7----------12---------5--------| 
G|-----------7----------12---------5--------| 
D|------------------------------------------| 
A|------------------------------------------| 
E|------------------------------------------| 

(Use palm mutes except when changing chords, 
listen to the cd.) 
D A 
A non-inclusive ruling class 
D 
try and cover up the facts 
A 
they orchestrate their twisted lies 
D 
and buy their alibis 
A 
I find it strange the same 
D 
There's always someone else to blame 
A 
We watch the clock go ticking by 
G 
And now we wonder why... 

(Then that neat little thing) 
e|-----------------------------------| 
B|-----------------------------------| 
G|---12-12-12---11-------9-------7---| 
D|---12-12-12---11-------9-------7---| 
A|---10-10-10---9--------7-------5---| 
E|-----------------------------------| 

(Chorus) 
D G 
Let's get away 
D G 
Can't take this place 
D G A D 
It won't be long before you see me break 

D A 
Divided and conquered we 
D 
Sit and wait so patiently 
A 
Never knowing whats in store 
D 
Try not to ask for more 
A 
So many times we've seen 
D 
Their past mistakes resurfacing 
A 
They never seem to have the proof 
G 
that qualifies for truth 

(Thingy played here) 

(Chorus) 
D G 
Lets get away 
D G 
Cant take this place 
D G A D 
It won't be long before you see me break 
D G 
Lets get away 
D G 
Can't take this place 
D G A D 
Cant see the beauty through this human waste 

(The big solo) 
e|--------------------------------------------------------------------| 
B|--------------------------------------------------------------------| 
G|--------------------------------------------------------------------| 
D|------------------------------------2-------------------------------| 
A|-12-----10--9--10--9-7-4-------0------------------------------------| 
E|--------------------------------------------------------------------| 

e|--------------------------------------------------------------------| 
B|--------------------------------------------------------------------| 
G|--------------------------------------------------------------------| 
D|------------------------------------2-------------------------------| 
A|-12-----10--9--10--9--7--------0------------------------------------| 
E|--------------------------------------------------------------------| 

e|--------------------------------------------------------------------| 
B|--------------------------------------------------------------------| 
G|--------------------------------------------------------------------| 
D|------------------------------------------------------------------2-| 
A|-12-----10--9--17--16--12-------17--16--12--14--12--7--0------------| 
E|--------------------------------------------------------------------| 

D A 
The time is yet to come 
D 
For the living proof of everyone 
A 
to think about our troubled lives 
D 
the truth the answer why 
A 
pretend we're all the same 
D 
there's nothing left to fade away 
G 
Except the stupid games we play 
F hG 
And I wanna believe there's nothing wrong with me 
F hG 
I gotta believe there's nothing wrong with me 
(thingy) 
this wasn't just a dream 

(Then the chorus again and life is wonderful. If by some 
strange event this tab is wrong, fix it and be proud.) 
            
Hard to play? Try these video lessons and learn fast. | Correct




comments powered by Disqus
↑ Back to top | Tablatures and chords are parodies/interpretations of the original songs. You may use it for private study, scholarship, research or language learning purposes only