>
 >
Dark Side Unreleased Demo

Dark Side Unreleased Demo Guitar Tabs

Unwritten Law - Dark Side Unreleased Demo chords, tabs, tablatures, lyrics

Guitar lessons | Add/correct | Request | Top 50 tabs Artists:  A B C D E F G H I J K L M N O P Q R S T U V W X Y Z 0-9

Dark Side Unreleased Demo Guitar Tabs – Unwritten Law

CD, Sheet music, Poster

Do you like Dark Side Unreleased Demo? Share with your friends now
Tabs
. = PALM MUTE

This is my first tab of the unreleased demo Dark Side by Unwritten Law. There is no tab for this
song that I could find so I decided to give it a go. I am pretty sure it is correct except I am
not sure about the solos. Please feel free to e-mail me with corrections.
or comments.

Have fun kiddies! m/

INTRO GUITAR 1 & 2
  
e|-------------------------------------------------------------------------|
B|-------------------------------------------------------------------------|
G|--7-7-7-7-7--7-7--7-7--7-7--9-9-9-9--------------------------------------|   X3
D|--7-7-7-7-7--7-7--7-7--7-7--9-9-9-9---5-5-5-5-5--5-5--5-5--5-5--3-3-3-3--|
A|--5-5-5-5-5--5-5--5-5--5-5--7-7-7-7---5-5-5-5-5--5-5--5-5--5-5--3-3-3-3--|
E|--------------------------------------3-3-3-3-3--3-3--3-3--3-3--1-1-1-1--|
    . . . . .  . .  . .  . .  . . .     . . . . .  . .  . .  . .  . . . .      (Note chord that is not palm muted)

|------------------------------------------------------| 
|------------------------------------------------------|
|--7-7-7-7-7--7-7--7-7--7-7--9-9-9-9-------------------|
|--7-7-7-7-7--7-7--7-7--7-7--9-9-9-9--5-5-5-5-5-5-5-5--|
|--5-5-5-5-5--5-5--5-5--5-5--7-7-7-7--5-5-5-5-5-5-5-5--|
|-------------------------------------3-3-3-3-3-3-3-3--|
   . . . . .  .    .    . 

|-------------------------------------------------------------------------|
|-------------------------------------------------------------------------|
|--7-7-7-7-7--7-7--7-7--7-7--9-9-9-9--------------------------------------|   X4
|--7-7-7-7-7--7-7--7-7--7-7--9-9-9-9---5-5-5-5-5--5-5--5-5--5-5--3-3-3-3--|
|--5-5-5-5-5--5-5--5-5--5-5--7-7-7-7---5-5-5-5-5--5-5--5-5--5-5--3-3-3-3--|
|--------------------------------------3-3-3-3-3--3-3--3-3--3-3--1-1-1-1--|    

|-----------------------------------------------------------------------------------|
|-----------------------------------------------------------------------------------| 
|--9-7-9-9-9-9-9-9-9-9-9-9-9-9-9-9-9-8-8-8-8-8-8-8-8-8-8-6-6-6-6-6-6-6-6-6-6-6---7--|
|--9-7-9-9-9-9-9-9-9-9-9-9-9-9-9-9-9-8-8-8-8-8-8-8-8-8-8-6-6-6-6-6-6-6-6-6-6-6---7--|
|--7-5-7-7-7-7-7-7-7-7-7-7-7-7-7-7-7-6-6-6-6-6-6-6-6-6-6-4-4-4-4-4-4-4-4-4-4-4---5--|
|-----------------------------------------------------------------------------------|

VERSE 1 GUITAR 1 & 2

|------------------------------------------------------------------------------------|
|------------------------------------------------------------------------------------|
|--7-7-7-7-7--7-7--7-7--7-7--9-9-9-9---11-11-11-11-11--11-11--11-11--11-11--9-9-9-9--|   X3
|--7-7-7-7-7--7-7--7-7--7-7--9-9-9-9---11-11-11-11-11--11-11--11-11--11-11--9-9-9-9--|
|--5-5-5-5-5--5-5--5-5--5-5--7-7-7-7----9--9--9--9--9---9--9---9--9---9--9--7-7-7-7--|
|------------------------------------------------------------------------------------|
   . . . . .  . .  . .  . .  . . .     .  .  .  .  .   .  .   .  .   .  .   . . . .   
 
|--------------------------------------------------------------------------------------|
|--------------------------------------------------------------------------------------|
|--7-7-7-7-7--7-7--7-7--7-7--9-9-9-9--10-10-10-10-10-10-10-10-10-10-10-10-10-10-10--7--|
|--7-7-7-7-7--7-7--7-7--7-7--9-9-9-9--10-10-10-10-10-10-10-10-10-10-10-10-10-10-10--7--|
|--5-5-5-5-5--5-5--5-5--5-5--7-7-7-7---8--8--8--8--8--8--8--8--8--8--8--8--8--8--8--5--|
|--------------------------------------------------------------------------------------|
   . . . . .  .    .    . 

CHORUS GUITAR 1 & 2

|---------------------------------------------------------------------------|
|---------------------------------------------------------------------------|
|--9-9-9-9-9-9-9-9-9-9-9-9-9-9-9-8-8-8-8-8-8-8-8-8-8-6-6-6-6-6-6-6-6-6-6-6--|
|--9-9-9-9-9-9-9-9-9-9-9-9-9-9-9-8-8-8-8-8-8-8-8-8-8-6-6-6-6-6-6-6-6-6-6-6--|
|--7-7-7-7-7-7-7-7-7-7-7-7-7-7-7-6-6-6-6-6-6-6-6-6-6-4-4-4-4-4-4-4-4-4-4-4--|
|---------------------------------------------------------------------------|

|-------------------------------------------------------------------------|
|-------------------------------------------------------------------------|
|--7-7-7-7-7--7-7--7-7--7-7--9-9-9-9--------------------------------------|   X2
|--7-7-7-7-7--7-7--7-7--7-7--9-9-9-9---5-5-5-5-5--5-5--5-5--5-5--3-3-3-3--|
|--5-5-5-5-5--5-5--5-5--5-5--7-7-7-7---5-5-5-5-5--5-5--5-5--5-5--3-3-3-3--|
|--------------------------------------3-3-3-3-3--3-3--3-3--3-3--1-1-1-1--|

VERSE 2 GUITAR 1 & 2

|------------------------------------------------------------------------------------|
|------------------------------------------------------------------------------------|
|--7-7-7-7-7--7-7--7-7--7-7--9-9-9-9---11-11-11-11-11--11-11--11-11--11-11--9-9-9-9--|   X3
|--7-7-7-7-7--7-7--7-7--7-7--9-9-9-9---11-11-11-11-11--11-11--11-11--11-11--9-9-9-9--|
|--5-5-5-5-5--5-5--5-5--5-5--7-7-7-7----9--9--9--9--9---9--9---9--9---9--9--7-7-7-7--|
|------------------------------------------------------------------------------------|
   . . . . .  . .  . .  . .  . . .     .  .  .  .  .   .  .   .  .   .  .   . . . .  

|--------------------------------------------------------------------------------------|
|--------------------------------------------------------------------------------------|
|--7-7-7-7-7--7-7--7-7--7-7--9-9-9-9--10-10-10-10-10-10-10-10-10-10-10-10-10-10-10--7--|
|--7-7-7-7-7--7-7--7-7--7-7--9-9-9-9--10-10-10-10-10-10-10-10-10-10-10-10-10-10-10--7--|
|--5-5-5-5-5--5-5--5-5--5-5--7-7-7-7---8--8--8--8--8--8--8--8--8--8--8--8--8--8--8--5--|
|--------------------------------------------------------------------------------------|
   . . . . .  .    .    .

CHORUS 2

GUITAR 1             GUITAR 2 SOLO PLAYED AFTER GUITAR 1 RIFF 
                     (VERY HARD TO HEAR NOT SURE IF THIS IS CORRECT)

|--------------|     |----------------|    
|--------------|     |----------------|    
|--7----7--11--| x4  |--7--8----------| x4   
|--7----7--11--|     |--------8--7----|    
|--5----5---9--|     |----------------|    
|--------------|     |----------------|    

|------------------------------------------------------------------|
|------------------------------------------------------------------|
|--7-7-7-7-7-7-7-7-7-7-7-7-7-7-7-9-9-9-9-9-9-9-9-9-9-9-9-9-9-9--5--|
|--7-7-7-7-7-7-7-7-7-7-7-7-7-7-7-9-9-9-9-9-9-9-9-9-9-9-9-9-9-9--5--|
|--5-5-5-5-5-5-5-5-5-5-5-5-5-5-5-7-7-7-7-7-7-7-7-7-7-7-7-7-7-7--3--|
|------------------------------------------------------------------|

GUITAR 1                GUITAR 2 SOLO OVERLAPS WITH GUITAR 1 RIFF

|------------------|    |----------13----------|
|------------------|    |--12--13------12--11--|
|--5--5-7--5--5-4--| x2 |----------------------| X2
|--5--5-7--5--5-4--|    |----------------------|
|--3--3-5--3--3-2--|    |----------------------|
|------------------|    |----------------------|

|------------------------------------------------------------------|
|------------------------------------------------------------------|
|--7-7-7-7-7-7-7-7-7-7-7-7-7-7-7-9-9-9-9-9-9-9-9-9-9-9-9-9-9-9--5--|
|--7-7-7-7-7-7-7-7-7-7-7-7-7-7-7-9-9-9-9-9-9-9-9-9-9-9-9-9-9-9--5--|
|--5-5-5-5-5-5-5-5-5-5-5-5-5-5-5-7-7-7-7-7-7-7-7-7-7-7-7-7-7-7--3--|
|------------------------------------------------------------------|

GUITAR 1                GUITAR 2 SOLO

|------------------|    |----------13----------|
|------------------|    |--12--13------12--11--|
|--5--5-7--5--5-4--| x2 |----------------------| X2
|--5--5-7--5--5-4--|    |----------------------|
|--3--3-5--3--3-2--|    |----------------------|
|------------------|    |----------------------|

|---------------------------------------------------------------|
|---------------------------------------------------------------|
|--7-7-7-7-7-7-7-7-7-7-7-7-7-7-7-9-9-9-9-9-9-9-9-9-9-9-9-9-9-9--| x3
|--7-7-7-7-7-7-7-7-7-7-7-7-7-7-7-9-9-9-9-9-9-9-9-9-9-9-9-9-9-9--|
|--5-5-5-5-5-5-5-5-5-5-5-5-5-5-5-7-7-7-7-7-7-7-7-7-7-7-7-7-7-7--|
|---------------------------------------------------------------|

DISTORTION AND RHYTHM CHANGES HERE                                          GUITAR 2 REPEATS THIS

|-------------------------------------------------------------------|      |--------------|
|-------------------------------------------------------------------|      |--------------|
|--7-7-7-7-7-7-7-7-7-7-7--9-9-9-9-----------------------------------|  X4  |--7--8--------|
|--7-7-7-7-7-7-7-7-7-7-7--9-9-9-9---5-5-5-5-5-5-5-5-5-5-5--3-3-3-3--|      |--------8--7--|
|--5-5-5-5-5-5-5-5-5-5-5--7-7-7-7---5-5-5-5-5-5-5-5-5-5-5--3-3-3-3--|      |--------------|
|-----------------------------------3-3-3-3-3-3-3-3-3-3-3--1-1-1-1--|      |--------------| 

VERSE 3

|-------------------------------------------------------------------------|
|-------------------------------------------------------------------------|
|--7-7-7-7-7--7-7--7-7--7-7--9-9-9-9--------------------------------------|   X3
|--7-7-7-7-7--7-7--7-7--7-7--9-9-9-9---5-5-5-5-5--5-5--5-5--5-5--3-3-3-3--|
|--5-5-5-5-5--5-5--5-5--5-5--7-7-7-7---5-5-5-5-5--5-5--5-5--5-5--3-3-3-3--|
|--------------------------------------3-3-3-3-3--3-3--3-3--3-3--1-1-1-1--|
   . . . . .  . .  . .  . .  . . .     . . . . .  . .  . .  . .  . . . . 

|--------------------------------------------------------------------------------------|
|--------------------------------------------------------------------------------------|
|--7-7-7-7-7--7-7--7-7--7-7--9-9-9-9--10-10-10-10-10-10-10-10-10-10-10-10-10-10-10--7--|
|--7-7-7-7-7--7-7--7-7--7-7--9-9-9-9--10-10-10-10-10-10-10-10-10-10-10-10-10-10-10--7--|
|--5-5-5-5-5--5-5--5-5--5-5--7-7-7-7---8--8--8--8--8--8--8--8--8--8--8--8--8--8--8--5--|
|--------------------------------------------------------------------------------------|
   . . . . .  .    .    .

CHORUS 3 / BREAKDOWN

|------------------------------------------------------------------|
|------------------------------------------------------------------|
|--7-7-7-7-7-7-7-7-7-7-7-7-7-7-7-9-9-9-9-9-9-9-9-9-9-9-9-9-9-9--5--|
|--7-7-7-7-7-7-7-7-7-7-7-7-7-7-7-9-9-9-9-9-9-9-9-9-9-9-9-9-9-9--5--|
|--5-5-5-5-5-5-5-5-5-5-5-5-5-5-5-7-7-7-7-7-7-7-7-7-7-7-7-7-7-7--3--|
|------------------------------------------------------------------|

GUITAR 1                GUITAR 2 SOLO

|------------------|    |----------13----------|
|------------------|    |--12--13------12--11--|
|--5--5-7--5--5-4--| x2 |----------------------| X2
|--5--5-7--5--5-4--|    |----------------------|
|--3--3-5--3--3-2--|    |----------------------|
|------------------|    |----------------------|

|------------------------------------------------------------------|
|------------------------------------------------------------------|
|--7-7-7-7-7-7-7-7-7-7-7-7-7-7-7-9-9-9-9-9-9-9-9-9-9-9-9-9-9-9--5--|
|--7-7-7-7-7-7-7-7-7-7-7-7-7-7-7-9-9-9-9-9-9-9-9-9-9-9-9-9-9-9--5--|
|--5-5-5-5-5-5-5-5-5-5-5-5-5-5-5-7-7-7-7-7-7-7-7-7-7-7-7-7-7-7--3--|
|------------------------------------------------------------------|
 
GUITAR 1                GUITAR 2 SOLO

|------------------|    |----------13----------|
|------------------|    |--12--13------12--11--|
|--5--5-7--5--5-4--| x2 |----------------------| X2
|--5--5-7--5--5-4--|    |----------------------|
|--3--3-5--3--3-2--|    |----------------------|
|------------------|    |----------------------|

|---------------------------------------------------------------|
|---------------------------------------------------------------|
|--7-7-7-7-7-7-7-7-7-7-7-7-7-7-7-9-9-9-9-9-9-9-9-9-9-9-9-9-9-9--| x3
|--7-7-7-7-7-7-7-7-7-7-7-7-7-7-7-9-9-9-9-9-9-9-9-9-9-9-9-9-9-9--|
|--5-5-5-5-5-5-5-5-5-5-5-5-5-5-5-7-7-7-7-7-7-7-7-7-7-7-7-7-7-7--|
|---------------------------------------------------------------|           
       
OUTRO RHYTHM CHANGES HERE                                                   GUITAR 2 REPEATS THIS

|-------------------------------------------------------------------|      |--------------|
|-------------------------------------------------------------------|      |--------------|
|--7-7-7-7-7-7-7-7-7-7-7--9-9-9-9-----------------------------------|  X3  |--7--8--------|
|--7-7-7-7-7-7-7-7-7-7-7--9-9-9-9---5-5-5-5-5-5-5-5-5-5-5--3-3-3-3--|      |--------8--7--|
|--5-5-5-5-5-5-5-5-5-5-5--7-7-7-7---5-5-5-5-5-5-5-5-5-5-5--3-3-3-3--|      |--------------|
|-----------------------------------3-3-3-3-3-3-3-3-3-3-3--1-1-1-1--|      |--------------|





Comments


Popular Unwritten Law tabs & chords
California Sky Bass Tabs
Harmonic Bass Tabs
Blame It On Me Tabs
Differences Tabs
Fight Intro Tabs
Harmonic 1 Tabs
Holiday Tabs
Rest Of My Life Tabs
Seein' Red 1 Tabs
Sound Siren 2 Tabs


Song lyrics



↑ Back to top | Tablatures and chords are parodies/interpretations of the original songs. You may use it for private study, scholarship, research or language learning purposes only
© 2014 AZChords.com Contact us | Privacy policy | DMCA | Add/correct tabs | Request tabs | Top 50 tabs