>
 >
C.P.K 1

C.P.K 1 Guitar Tabs

Unwritten Law - C.P.K 1 chords, tabs, tablatures, lyrics

Guitar lessons | Add/correct | Request | Top 50 tabs Artists:  A B C D E F G H I J K L M N O P Q R S T U V W X Y Z 0-9

C.P.K 1 Guitar Tabs – Unwritten Law

CD, Sheet music, Poster

Do you like C.P.K 1? Share with your friends now
Bass TabsChordsTabsTabs v2
Unwritten Law-CPK
standard tuning EADGBE
|Please rate this tab|
for the most part I didnt put the strum patterns-its not that important
Note-Guitar II does some pick slides-listen to the song to find out where they are
+This is very correct+

Intro (gtr.I)       on 2nd time gtr.II plays this
|-----              |
|9-2-4              | 
|9-2-4  X 2         |9
|9-2-4              |9 
|7-0-2              |7 let ring
|-----              |0

pre-verse (gtr.I)
|------------------
|9-4-6-----4--9-2-4
|9-4-6-5-6-4--9-2-4
|9-4-6-6-7-4--9-2-4
|7-2-4-6-7-2--7-0-2
|------4-5---------

verse (gtr.I)
|-------------------------------------
|9-4-6-----9---4---9-4-6-----4---9-2-4
|9-4-6-5-6-9-6-4---9-4-6-5-6-4---9-2-4
|9-4-6-6-7-9-7-4---9-4-6-6-7-4---9-2-4
|7-2-4-6-7-7-7-2---7-2-4-6-7-2---7-0-2
|------4-5---5-----------4-5----------

chorus (gtr.I)
|-------------
|----9-------4
|5-6-9---5-6-4
|6-7-9---6-7-4
|6-7-7---6-7-2
|4-5-----4-5ó

Intro X2(w/o gtr.IIís part)
Verse X1
Chorus X1

Solo gtr.I
|--------------------------------------
|11-6-8-3-4---4-6---11-6-8-3-4-6-11-4-6
|11-6-8-3-4-3-4-6---11-6-8-3-4-6-11-4-6
|11-6-8-3-4-4-4-6---11-6-8-3-4-6-11-4-6
|9--4-6-1-2-4-2-4---9--4-6-1-2-4-9--2-4
|-----------2--------------------------

solo gtr.II
|-----------------------------------------------------------
|-----------------------------------------------------------
|-----------------------------------------------------------
|-----------------------------------------------------------
|9-9-9-9-9-11-11-11-9-8-6-6-6-6-6-8-8-8-6-8-9-9-9-8-6-4ó4-4-
|-----------------------------------------------------------

|----------------------------------------------------------
|----------------------------------------------------------
|----------------------------------------------------------
|----------------------------------------------------------
|9-9-9-9-9-11-11-11-11-13--9-9-9-9-9-11-11-11-9-8-6-6-6-6-6
|----------------------------------------------------------

|----------------------------------------------------------
|----------------------------------------------------------
|----------------------------------------------------------
|----------------------------------------------------------
|8-8-8-6-8-9-9-9-9-9-11-11-11-11-13-9-9--------------------
|----------------------------------------------------------

Interlude (gtr.I)
|--------------------------------------------
|--------------------------------------------
|9--9-4--4-6--6-----------9--9------4-2244---
|9--9-4--4-6--6-6--6-7--7-9--9-7--7-4-2244---
|7--7-2--2-4--4-6--6-7--7-7--7-7--7-2-0022---
|---------------4--4-5--5------5--5----------

|------------------------------------------------------
|------------------------------------------------------
|9--9-4--4-6--6-----------4--4-9-9-9-9-22-4-4-4---4---4
|9--9-4--4-6--6-6--6-7--7-4--4-9-9-9-9-22-4-4-4---4---4
|7--7-2--2-4--4-6--6-7--7-2--2-7-7-7-7-00-2-2-2---2---2
|---------------4--4-5--5------------------------------

Interlude (gtr.II)listen to song so you know when to play
|--------------------------------------
|10-9---7-4---7-6---4-1---2----9-5---2-
|--------------------------2----------2
|--------------------------------------
|--------------------------------------
|--------------------------------------

|----------------------------------
|10-9---7-4---7-6---4-1---5-2---5-4
|----------------------------------
|----------------------------------
|----------------------------------
|----------------------------------

chorus X1
intro X3
end on:
|---
|-9-
|-9-
|-9-
|-7-
|---





Comments


Popular Unwritten Law tabs & chords
Harmonic Bass Tabs
Seein' Red Bass Tabs
Cailin Chords
Actress Model Dancer Tabs
Blame It On Me 1 Tabs
Denied Tabs
Differences Tabs
Save Me Tabs
She Says Tabs
Your My Angel Tabs


Song lyrics



↑ Back to top | Tablatures and chords are parodies/interpretations of the original songs. You may use it for private study, scholarship, research or language learning purposes only
© 2014 AZChords.com Contact us | Privacy policy | DMCA | Add/correct tabs | Request tabs | Top 50 tabs