>
 >
Coffin Text

Coffin Text Guitar Tabs

Unwritten Law - Coffin Text chords, tabs, tablatures, lyrics

Guitar lessons | Add/correct | Request | Top 50 tabs Artists:  A B C D E F G H I J K L M N O P Q R S T U V W X Y Z 0-9

Coffin Text Guitar Tabs – Unwritten Law

CD, Sheet music, Poster

Do you like Coffin Text? Share with your friends now
Tabs
Intro 
e------------------------------------------------------------------------------ 
b------------------------------------------------------------------------------ 
g------------------------------------------------------------------------------ 
d-6-------------------------6-7-9----6-9-7-6----------------------------------- 
a-7-------------------------7-7-7----7-7-7-7-7--------------------------------- 
e-0-------------------------0-0-0----0-0-0-0-0--------------------------------- 

Guitar 1 1, 2, 3 4th time 
e--------------------------------------------------------|--------------------- 
b--------------------------------------------------------|--------------------- 
g-13-13-13-13-14-13-13-13-13-16-13-13-13-13-14-13-13-13--|--12-------14-------- 
d--------------------------------------------------------|--------------------- 
a-11-11-11-11-12-11-11-11-11-14-11-11-11-11-12-11-11-11--|--10-------12-------- 
e--------------------------------------------------------|--------------------- 

Guitar 2 1, 2, 3 4th time 
e--------------------------------------------------------|--------------------- 
b--------------------------------------------------------|--------------------- 
g--9--9--9--9--9--9--9--9--9--9--9--9--9--9--9--9--9--9--|--5---------7-------- 
d--9--9--9--9--9--9--9--9--9--9--9--9--9--9--9--9--9--9--|--5---------7-------- 
a--7--7--7--7--7--7--7--7--7--7--7--7--7--7--7--7--7--7--|--3---------5-------- 
e--------------------------------------------------------|--------------------- 

Verse - Guitar is palm muted 
e--------------------------------------------------------|--------------------- 
b--------------------------------------------------------|--------------------- 
g--------------------------------------------------------|--5---------7-------- 
d--6--6--6--6--7--6--6--6--6--9--6--6--6--6--7--6--6--6--|--5---------7-------- 
a--7--7--7--7--7--7--7--7--7--7--7--7--7--7--7--7--7--7--|--3---------5-------- 
e--0--0--0--0--0--0--0--0--0--0--0--0--0--0--0--0--0--0--|--------------------- 

Chorus w/ intro behind middle, play chords through 
e------------------------------------------------------------------------------ 
b------------------------------------------------------------------------------ 
g----------4-------------------------5--------7-------------------------------- 
d-5--------4--------6----------------5--------7-------------------------------- 
a-5--------2--------7----------------3--------5-------------------------------- 
e-3-----------------0---------------------------------------------------------- 

Interlude 
e------------------------------------------------------------------------------ 
b------------------------------------------------------------------------------ 
g-13-11--9--7--6--3--4----13-11--16--14--13-11--9------------------------------ 
d------------------------------------------------------------------------------ 
a-11--9--7--5--4--1--2----11--9--14--12--11--9--7------------------------------ 
e------------------------------------------------------------------------------ 

e------------------------------------------------------------------------------ 
b------------------------------------------------------------------------------ 
g-2222222222222222-------2------------2---------------------------------------- 
d-2222222222222222-------2------------2------7777777777777777----9--9-7-6-4---- 
a-0000000000000000-22222-0-2-0--22222-0-2-0--7777777777777777--9-9--9-7-6-4---- 
e------------------00000---0-0--00000---0-0--5555555555555555--7-7--7-5-4-2---- 





Comments


Popular Unwritten Law tabs & chords
Your My Angel Bass Tabs
Save Me 1 Chords
Shallow Chords
Blame It On Me Tabs
Cailin Tabs
Harmonic Tabs
Seeing Red (Intro) Tabs
Shoulda Known Better Tabs
Unwrittenxmas 1 Tabs
Save Me 2 Ukulele


Song lyrics



↑ Back to top | Tablatures and chords are parodies/interpretations of the original songs. You may use it for private study, scholarship, research or language learning purposes only
© 2014 AZChords.com Contact us | Privacy policy | DMCA | Add/correct tabs | Request tabs | Top 50 tabs