» » »

Calin Tabs (ver.1)

Artists:  A B C D E F G H I J K L M N O P Q R S T U V W X Y Z # 

Calin Tabs (ver.1)

Unwritten Law
Rating:
0/5 (0 votes)

Hard to play? Try these video lessons and learn fast.
                this is one of the finest but not there best

its esay just listen to the cd for timing ect

key:
PM_=palm mute
p=pull off

----------------------------------|-----------------------------------|-------
----------------------------------|---------------------------------0-|-------
---------0-------0------0-------0-|-------0-------0-------0-----0-----|-------
-------0-------0------0-------0---|-----0-------0-------0---------0---|-------
----------------------------------|-----------------------------------|-------
-3-3-----5-5-------7-7----8-8-----|-3-3-----5-5-----7-7-----8-8-------|-------
 PM_     ___       ___    ___       ___     ___     ___     ___    x4         

---------------------------------|-----------------------------------|--------
---------------0---------------0-|---------------0-----------------0-|--------
-----0-----0---------0-----0-----|-----0-----0---------0-------0-----|--------
-----0-------0-------0-------0---|-----0-------0-------0-----0---0---|--------
-------3-3-------------3-3-------|-------3-3-------------3-3---------|--------
-3-3-------------3-3-------------|-3-3-------------3-3---------------|--------
 ___   ___       ___   ___         ___   ___       ___   ___       x2         

-----------------|-----------------|-----------------|-----------------|------
-----------------|-----------------|-----------------|-----------------|------
-5-5-5-5-5-5-5-5-|-7-7-7-7-7-7-7-7-|-----------------|-----------------|------
-5-5-5-5-5-5-5-5-|-7-7-7-7-7-7-7-7-|-5-5-5-5-5-5-5-5-|-2-2-2-2-2-2-2-2-|------
-3-3-3-3-3-3-3-3-|-5-5-5-5-5-5-5-5-|-5-5-5-5-5-5-5-5-|-2-2-2-2-2-2-2-2-|------
-----------------|-----------------|-3-3-3-3-3-3-3-3-|-0-0-0-0-0-0-0-0-|------
 1st chorus is Palm Muted                                                     

---------------------|-----------------|-----------------|--------------------
---------------------|-----------------|-----------------|--------------------
---------------------|-5-5-5-5-5-5-5-5-|-7-7-7-7-7-7-7-7-|--------------------
-2-22--4--5-55--5--5-|-5-5-5-5-5-5-5-5-|-7-7-7-7-7-7-7-7-|--------------------
-2-22--4--5-55--5--5-|-3-3-3-3-3-3-3-3-|-5-5-5-5-5-5-5-5-|--------------------
-0-00--2--3-33--3--3-|-----------------|-----------------|--------------------
 b4 2nd and 3rd play this                                                     

-3-5p3-3-3-5p3-3-3-7p3-3-3-5p3-3-3-5p3----------------------------------------
-3-3-3-3-3-3-3-3-3-3-3-3-3-3-3-3-3-3-3-------------5p3-5-3--------------------
---------------------------------------4p0-0-4p0-0-0-0-0-0--------------------
 solo: 2x                                                                     

-3-3-3-3--4--2----------------------------------------------------------------
-3-3-3-3--4--2----------------------------------------------------------------
-5-5-5-5--2--0----------------------------------------------------------------
 ending:after the chorus
            
Hard to play? Try these video lessons and learn fast. | Correct




comments powered by Disqus
↑ Back to top | Tablatures and chords are parodies/interpretations of the original songs. You may use it for private study, scholarship, research or language learning purposes only