» » »

Unwritten Law, California Sun Tabs (ver.1)

Artists:  A B C D E F G H I J K L M N O P Q R S T U V W X Y Z # 

California Sun Tabs (ver.1)

Unwritten Law Tabs
 Rating:
4/5 (4 votes)
California Sun lessons Tabs too difficult? Try these video lessons and learn fast
                "California Sun" - Unwritten Law

It's tabbed out in order of the song, 
I know it might be a pain in the ass so sorry
Intro
e|---------------------------------
b|---------------------------------
g|---------------------------------
d|---------------------------------
a|-2--2--2--2---5--5--5---7--7---5-
E|-0--0--0--0---3--3--3---5--5---3-

e|---------------------------------
b|---------------------------------
g|---------------------------------
d|--------------7--7--7------------
a|-2--2--2--2---5--5--5---7--7--5--
E|-0--0--0--0-------------5--5--3--

e|-------------------------------------
b|-------------------------------------
g|-------------------------------------
d|-------------------------------------
a|-2--2--2--2---5--5--5---7--7---5---7-
E|-0--0--0--0---3--3--3---5--5---3---5-

e|------------------------------------
b|------------------------------------
g|------------------------------------                     
d|------------------------------------
a|-7--7--7--7--7--7---10---9---5/7----
E|------------------------------------
                                                           
e|----------------------------------------------
b|----------------------------------------------
g|----------------------------------------------
d|--------------------9---7---5---4---5---------           
a|-7--7--7--7--7--7-----------------------5---7-
E|----------------------------------------------

e|------------------------------------------------------
b|------------------------------------------------------
g|------------------------------------------------------
d|-----------------------------7--7--7--7---5--5---7--7-
a|-5--5---4---2--2--2--2---5---5--5--5--5---3--3---5--5-
E|-3--3---2---0--0--0--0---3----------------------------

e|--------------------------------------------------------
b|--------------------------------------------------------
g|--------------------------------------------------------
d|--------------------------------------------------------
a|-2--2--2--2---5--5--5--5---7--7--7--7---5--5---7--7---5-
E|-0--0--0--0---3--3--3--3---5--5--5--5---3--3---5--5---3-

e|------------------------------------------------------------------------------
b|------------------------------------------------------------------------------
g|------------------------------------------------------------------------------
d|---------------------------7--7--7--7---5--5--5--5----5--5--5--5---7--7--7--7-
a|-2--2--2--2---5--5--5--5---5--5--5--5---3--3--3--3----3--3--3--3---5--5--5--5-
E|-0--0--0--0---3--3--3--3------------------------------------------------------


 Rythym parts during the solo
e|------------------------------------------------------------------------------------
b|------------------------------------------------------------------------------------
g|------------------------------------------------------------------------------------
d|-9--9--9--9--9---7---5--5--5--5--5------------7--7--7-------------------------------
a|-7--7--7--7--7---5---3--3--3--3--3---7--7--7--5--5--5--7--7--7--7--7--7--7--7--7--7-
E|-------------------------------------5--5--5-----------5--5--5--5--5--5--5--5--5--5-

e|--------------------------------------
b|--------------------------------------
g|--------------------------------------
d|---------------------7--7--7--7--7--7-
a|-2----5----7----9----5--5--5--5--5--5-
E|-0----3----5----7---------------------

e|------------------------------------------------------
b|------------------------------------------------------
g|------------------------------------------------------
d|--------------7--7--7--7---5--5--5---4/5--5--5---4----
a|-5--5--5--5---5--5--5--5---3--3--3---2/3--3--3---2----
E|-3--3--3--3-------------------------------------------

e|---------------------------------------------------
b|---------------------------------------------------
g|---------------------------------------------------
d|--------------7--7--7--7---5--5--5---4/5--5---7--7-
a|-5--5--5--5---5--5--5--5---3--3--3---2/3--3---5--5-
E|-3--3--3--3----------------------------------------

e|-----------------------------------------------
b|-----------------------------------------------
g|-----------------------------------------------
d|-------------------------5--5--5--4/5--5--5--4-
a|-2--2--2--2--5--5--5--5--3--3--3--2/3--3--3--2-
E|-0--0--0--0--3--3--3--3------------------------

e|---------------------------------------------
b|---------------------------------------------
g|---------------------------------------------
d|--------------7--7--7---5--5--5---7--7--7--7-
a|-5--5--5--5---5--5--5---3--3--3---5--5--5--5-
E|-3--3--3--3----------------------------------

SOLO:
e|-------------------------------------------------------------------------------------
b|-----------------------3--------------------------------------------------------5----
g|---------3^---3^---2-------4---5---7--7--7--7--7---9--9--9--9-------7----------------
d|-----5----------------------------------------------------------7-------7---5--------
a|-7-----------------------------------------------------------------------------------
E|-------------------------------------------------------------------------------------
            
Submit corrections

comments powered by Disqus
↑ Back to top | Unwritten Law Tabs for California Sun. Lyrics for acoustic guitar and electric guitar. Tablatures and chords are parodies/interpretations of the original songs. You may use it for private study, scholarship, research or language learning purposes only