» » »

Unwritten Law, California Sky Bass tabs (ver.1)

Artists:  A B C D E F G H I J K L M N O P Q R S T U V W X Y Z # 

California Sky Bass tabs (ver.1)

Unwritten Law Tabs
 Rating:
4/5 (4 votes)
California Sky lessons Tabs too difficult? Try these video lessons and learn fast
1
                ~ = let ring

Intro: (come in when drums come in)
g|------------------------------------------|
d|------------------------------------------|
a|------------------------------5-5-5-------|
e|0-0-0-2-3-3-3-5-5-3---0-0-0-3-------5-5-3-|

g|------------------------------------------|
d|------------------------------------------|
a|----------------------0-0-0-0-3-3-5-5-----| whole thing X 2
e|0-0-0-2-3-3-3-5-5-3-----------------------|

Verse: 
g|----------------------------------------------------------------|
d|----------------------------------------------------------------|
a|----------------3-3-3-3-3-3-3-3-----------------5-5-5-5-5-5-5-5-|
e|0-0-0-0-0-0-0-0-----------------3-3-3-3-3-3-3-3-----------------|

g|----------------------------------------------------------------|
d|----------------------------------------------------------------|
a|----------------3-3-3-3-3-3-3-3-----------------2-2-2-2-2-------|
e|0-0-0-0-0-0-0-0-----------------3-3-3-3-3-3-3-3-----------3-2-3-|

Chorus:
g|------------------------------------------------------------------|
d|------------------------------------------------------------------|
a|----------------5-5-5-5-3-3-5-5-------------------0-0-0-0-3-3-5-5-|
e|0-0-0-2-3-3-3-3-------------------0-0-0-2-3-3-3-3-----------------|

g|--------------------------------------------------------|
d|--------------------------------------------------------|
a|----------------5-5-5-5-3-3-3-3-3-3-3-3-5-5-5-5-5-5-5-5-|
e|0-0-0-2-3-3-3-3-----------------------------------------|

Intro X 1

Verse X 1

Chorus 

Play this during the guitar solo:
g|----------------------------------------------------------------|
d|----------------------------------------------------------------|
a|----------------3-3-3-3-3-3-3-3-0-0-0-0-5-5-5-5-----------------| X 2
e|0-0-0-0-0-0-0-0---------------------------------0-0-0-0-0-0-0-0-|

bridge/interlude part:
g|-------------|  
d|-------------|
a|------0~~3~5~| then stop, guitars are alone for a few seconds
e|0~~3~~-------|

last chorus:
g|-----------------------------------------------------------------|
d|-----------------------------------------------------------------|
a|--------5-5-5-5-3-3-3-3-3-3-3-3----------5-5-5-5-3-3-3-3-3-3-3-3-|
e|3-3-3-3--------------------------3-3-3-3-------------------------|

g|-----------------------------------------------------------------|
d|-----------------------------------------------------------------|
a|----------------3-3-3-3-3-3-3-3----------5-5-5-5-3-3-3-3-3-3-3-3-|
e|0-0-0-2-3-3-3-3------------------3-3-3-3-------------------------|

g|------------------|
d|------------------|
a|5-5-5-5-5-5-5-5---|
e|----------------0~|
            
Submit corrections

comments powered by Disqus
↑ Back to top | Unwritten Law Bass for California Sky. Lyrics for acoustic guitar and electric guitar. 1 Tablatures and chords are parodies/interpretations of the original songs. You may use it for private study, scholarship, research or language learning purposes only