>
 >
Cailin 2

Cailin 2 Guitar Tabs

Unwritten Law - Cailin 2 chords, tabs, tablatures, lyrics

Guitar lessons | Add/correct | Request | Top 50 tabs Artists:  A B C D E F G H I J K L M N O P Q R S T U V W X Y Z 0-9

Cailin 2 Guitar Tabs – Unwritten Law

CD, Sheet music, Poster

Do you like Cailin 2? Share with your friends now
Bass TabsChordsTabsTabs v2Tabs v3Tabs v4Ukulele
Cailin                      Unwritten Law

G5
3 5 5 x x x

C5
x 3 5 5 x x 

D5
x 5 7 7 x x

E5
0 2 2 x x x 

Em
0 2 2 0 0 0 

C
x 3 5 5 5 3

D
x 5 7 7 7 5 

B5
x 2 4 4 x x 

F#5
2 4 4 x x x 


Gtr I (E A D G B E) - 'Clean'
Gtr II (E A D G B E) - 'Slight Dist.'
Gtr III (E A D G B E) - 'Heavy Dist.'


             Intro
  Q=112
              N.C.
 2/4         4/4
  Gtr I
              PM|       PM|         PM|       PM|
  E. Q  S     E E S E S E E S E S   E E S E S E E S S E  4x
|---------||----------------------|----------------------||
|---------||o---------------------|-------------------0-o||
|---------||--------0---------0---|-------0-------0------||
|---------||------0---x-----0---x-|-----0---x-------0----||
|---------||o---------------------|-2-2-------3-3-------o||
|-------0-||--3-3-------5-5-------|----------------------||


  PM|    PM--|         PM|    PM--|
  E E E. S E E S S E   E E E. S E E S S E
|--------------------|--------------------|
|------------------0-|------------------0-|
|-----0--------0-----|-----0--------0-----|
|-----0----------0---|-----0----------0---|
|--------5-3-3-------|--------5-3-3-------|
|-3-3----------------|-3-3----------------|


  PM|    PM--|         PM|    PM--|
  E E E. S E E S S E   E E E. S E E S S E
|--------------------|--------------------|
|------------------0-|------------------0-|
|-----0--------0-----|-----0--------0-----|
|-----0----------0---|-----0----------0---|
|--------5-3-3-------|--------5-3-3-------|
|-3-3----------------|-3-3----------------|


 Verse
  N.C.
  PM|       PM|         PM|       PM|
  E E S E S E E S E S   E E S E S E E S S E
|---------------------|---------------------|
|---------------------|-------------------0-|
|-------0---------0---|-------0-------0-----|
|-----0---x-----0---x-|-----0---x-------0---|
|---------------------|-----------3-3-------|
|-3-3-------5-5-------|-0-0-----------------|


  PM|       PM|         PM|       PM|
  E E S E S E E S E S   E E S E S E E S S E
|---------------------|----------------------|
|---------------------|-------------------0--|
|-------0---------0---|-------0-------0------|
|-----0---x-----0---x-|-----0---x-------0----|
|---------------------|-2-2-------3-3--------|
|-3-3-------5-5-------|----------------------|


  PM|           PM|                   PM|
  E +E   S  E S E E S E S   E E S E S E E S S E
|-------------------------|---------------------|
|-------------------------|-------------------0-|
|-----------0---------0---|-------0-------0-----|
|--------0----x-----0---x-|-----0---x-------0---|
|-5-(5)-------------------|-----------3-3-------|
|-3-(3)-(3)-----5-5-------|-0-0-----------------|


  PM|       PM|         PM|       PM|
  E E S E S E E S E S   E E S E S E E S S E
|---------------------|----------------------|
|---------------------|-------------------0--|
|-------0---------0---|-------0-------0------|
|-----0---x-----0---x-|-----0---x-------0----|
|---------------------|-2-2-------3-3--------|
|-3-3-------5-5-------|----------------------|


 Chorus 1
  C5                D5                G5                E5
  Gtr II
  PM------------------------------------------------------------------|
  E E E E E E E E   E E E E E E E E   E E E E E E E E   E E E E E E E E
|-----------------|-----------------|-----------------|-----------------|
|-----------------|-----------------|-----------------|-----------------|
|-----------------|-----------------|-----------------|-----------------|
|-5-5-5-5-5-5-5-5-|-7-7-7-7-7-7-7-7-|-----------------|-----------------|
|-3-3-3-3-3-3-3-3-|-5-5-5-5-5-5-5-5-|-5-5-5-5-5-5-5-5-|-2-2-2-2-2-2-2-2-|
|-----------------|-----------------|-3-3-3-3-3-3-3-3-|-0-0-0-0-0-0-0-0-|


  C5                D5          C5B5
  PM----------------------|
  E E E E E E E E   E E E E E E E E
|-----------------|-----------------|
|-----------------|-----------------|
|-----------------|-----------------|
|-5-5-5-5-5-5-5-5-|-7-7-7-7-7-7-5-4-|
|-3-3-3-3-3-3-3-3-|-5-5-5-5-5-5-3-2-|
|-----------------|-----------------|


    N.C.
    PM|    PM--|           PM|    PM-------|
    E E E. S E E S S E  3x E E E. S E. S S S E
||----------------------||-----------------------|
||o------------------0-o||-------------------0---|
||------0--------0------||-----0---------0-------|
||------0----------0----||-----0-----------0-----|
||o--------5-3-3-------o||--------5-3--3---------|
||--3-3-----------------||-3-3-------------------|


 Verse 2
  N.C.
  PM|       PM|         PM|       PM|
  E E S E S E E S E S   E E S E S E E S S E
|---------------------|---------------------|
|---------------------|-------------------0-|
|-------0---------0---|-------0-------0-----|
|-----0---x-----0---x-|-----0---x-------0---|
|---------------------|-----------3-3-------|
|-3-3-------5-5-------|-0-0-----------------|


  PM|       PM|         PM|       PM|
  E E S E S E E S E S   E E S E S E E S S E
|---------------------|----------------------|
|---------------------|-------------------0--|
|-------0---------0---|-------0-------0------|
|-----0---x-----0---x-|-----0---x-------0----|
|---------------------|-2-2-------3-3--------|
|-3-3-------5-5-------|----------------------|


  PM|           PM|                   PM|
  E +E   S  E S E E S E S   E E S E S E E S S E
|-------------------------|---------------------|
|-------------------------|-------------------0-|
|-----------0---------0---|-------0-------0-----|
|--------0----x-----0---x-|-----0---x-------0---|
|-5-(5)-------------------|-----------3-3-------|
|-3-(3)-(3)-----5-5-------|-0-0-----------------|


  PM|       PM|         PM|       PM|
  E E S E S E E S E S   E E S E S E E S S E
|---------------------|----------------------|
|---------------------|-------------------0--|
|-------0---------0---|-------0-------0------|
|-----0---x-----0---x-|-----0---x-------0----|
|---------------------|-2-2-------3-3--------|
|-3-3-------5-5-------|----------------------|


 Pre-Chorus
  E5                    G5                   C5                E5
  Gtrs II, III                               Gtr III
                                             PM------------------------------|
  S S S S E Q.   S E.   S S S S E Q  E E E   E E E E E E E E   E E E E E E E E
|---------------------|--------------------|-----------------|-----------------|
|---------------------|--------------------|-----------------|-----------------|
|---------------------|--------------------|-----------------|-----------------|
|-2-2-2-2-2-----------|-5-5-5-5-5----5---5-|-5-5-5-5-5-5-5-5-|-7-7-7-7-7-7-7-7-|
|-2-2-2-2-2-----------|-5-5-5-5-5----5---5-|-3-3-3-3-3-3-3-3-|-5-5-5-5-5-5-5-5-|
|-0-0-0-0-0------0-2--|-3-3-3-3-3----3---3-|-----------------|-----------------|
|
|                                            Gtr I
| W                     W                    E E E Q   E Q     E E E Q   E Q
|---------------------|--------------------|-------3---------|-------5---------|
|---------------------|--------------------|-------5---------|-------7---------|
|---------------------|--------------------|-----5-----5-----|-----7-----7-----|
|---------------------|--------------------|---5---------5---|---7---------7---|
|---------------------|--------------------|-3---------------|-5---------------|
|---------------------|--------------------|-----------------|-----------------|


 Chorus 2
  C5                         D5
  Gtr III
   E  E   E  E  E  E  E  E    E  E  E  E  E  E  E  E
|--------------------------|-------------------------|
|--------------------------|-------------------------|
|--5--5---5--5--5--5--5--5-|--7--7--7--7--7--7--7--7-|
|--5--5---5--5--5--5--5--5-|--7--7--7--7--7--7--7--7-|
|--3--3---3--3--3--3--3--3-|--5--5--5--5--5--5--5--5-|
|--------------------------|-------------------------|
|
| Gtr II
|  E  E   E  E  E  E  E  E    E  E  E  E  E  E  E  E
|--------------------------|-------------------------|
|--------------------------|-------------------------|
|-17-17--17-17-17-17-17-17-|-14-14-14-14-14-14-14-14-|
|--x--x---x--x--x--x--x--x-|--x--x--x--x--x--x--x--x-|
|-15-15--15-15-15-15-15-15-|-12-12-12-12-12-12-12-12-|
|--------------------------|-------------------------|
|
| Gtr I
|  E  H.                 E    W
|-^3-----------------------|-------------------------|
|-^5-----------------------|-------------------------|
|-^5-----------------------|-------------------------|
|-^5-----------------------|-------------------------|
|-^3-----------------------|-------------------------|
|--------------------------|-------------------------|


  G5                        E5
   E  E  E  E  E  E  E  E    E  E  E  E  E  E  E  E
|-------------------------|-------------------------|
|-------------------------|-------------------------|
|-------------------------|-------------------------|
|--5--5--5--5--5--5--5--5-|--2--2--2--2--2--2--2--2-|
|--5--5--5--5--5--5--5--5-|--2--2--2--2--2--2--2--2-|
|--3--3--3--3--3--3--3--3-|--0--0--0--0--0--0--0--0-|
|
|  E  E  E  E  E  E  E  E    E  E  E  E  E  E  E  E
|-------------------------|-------------------------|
|-------------------------|-------------------------|
|-16-16-16-16-16-16-16-16-|-16-16-16-14-14-16-16-12-|
|--x--x--x--x--x--x--x--x-|--x--x--x--x--x--x--x--x-|
|-14-14-14-14-14-14-14-14-|-14-14-14-12-12-14-14-10-|
|-------------------------|-------------------------|
|
|  W                         W
|-------------------------|-------------------------|
|-------------------------|-------------------------|
|-------------------------|-------------------------|
|-------------------------|-------------------------|
|-------------------------|-------------------------|
|-------------------------|-------------------------|


  C5                        D5
   E  E  E  E  E  E  E  E    E  E  E  E  E  E  E  E
|-------------------------|-------------------------|
|-------------------------|-------------------------|
|--5--5--5--5--5--5--5--5-|--7--7--7--7--7--7--7--7-|
|--5--5--5--5--5--5--5--5-|--7--7--7--7--7--7--7--7-|
|--3--3--3--3--3--3--3--3-|--5--5--5--5--5--5--5--5-|
|-------------------------|-------------------------|
|
|  E  E  E  E  E  E  E  E    E  E  E  E  E  E  E  E
|-------------------------|-------------------------|
|-------------------------|-------------------------|
|-17-17-17-17-17-17-17-17-|-19-19-19-19-19-19-19-19-|
|--x--x--x--x--x--x--x--x-|--x--x--x--x--x--x--x--x-|
|-15-15-15-15-15-15-15-15-|-17-17-17-17-17-17-17-17-|
|-------------------------|-------------------------|


  G5                        E5
   E  E  E  E  E  E  E  E    E  E  E  E  E  E  E  E
|-------------------------|-------------------------|
|-------------------------|-------------------------|
|-------------------------|-------------------------|
|--5--5--5--5--5--5--5--5-|--2--2--2--2--2--2--2--2-|
|--5--5--5--5--5--5--5--5-|--2--2--2--2--2--2--2--2-|
|--3--3--3--3--3--3--3--3-|--0--0--0--0--0--0--0--0-|
|
|  E  E  E  E  E  E  E  E    E  E  E  E  E  E  E  E
|-------------------------|-------------------------|
|-------------------------|-------------------------|
|-12-12-12-12-12-12-12-12-|-12-12-12-12-12-12-12-12-|
|--x--x--x--x--x--x--x--x-|--x--x--x--x--x--x--x--x-|
|-10-10-10-10-10-10-10-10-|-10-10-10-10-10-10-10-10-|
|-------------------------|-------------------------|


  C5                    D5
    E  E E E E E  E E    E  E E E E E  E E
|---------------------|--------------------|
|---------------------|--------------------|
|---5--5-5-5-5-5--5-5-|--7--7-7-7-7-7--7-7-|
|---5--5-5-5-5-5--5-5-|--7--7-7-7-7-7--7-7-|
|---3--3-3-3-3-3--3-3-|--5--5-5-5-5-5--5-5-|
|---------------------|--------------------|
|
|   H.            Q      H.            Q
|---------------------|--------------------|
|-/13------------13S==|=10------------10S==|
|---------------------|--------------------|
|---------------------|--------------------|
|---------------------|--------------------|
|---------------------|--------------------|


  G5                   E5
   E  E E E E E  E E   E  E E E E E E E
|--------------------|------------------|
|--------------------|------------------|
|--------------------|------------------|
|--5--5-5-5-5-5--5-5-|-2--2-2-2-2-2-2-2-|
|--5--5-5-5-5-5--5-5-|-2--2-2-2-2-2-2-2-|
|--3--3-3-3-3-3--3-3-|-0--0-0-0-0-0-0-0-|
|
|  H.            Q     H.           Q
|--------------------|------------------|
|-12------------12S==|=8------------8S==|
|--------------------|------------------|
|--------------------|------------------|
|--------------------|------------------|
|--------------------|------------------|


                                           Guitar Break
  C5                   D5                   G5
   E  E E E E E  E E    E  E E E E E  E E   H    H      Wx3
|--------------------|--------------------|-----------|--------|
|--------------------|--------------------|-----------|--------|
|--5--5-5-5-5-5--5-5-|--7--7-7-7-7-7--5-4-|-----------|--------|
|--5--5-5-5-5-5--5-5-|--7--7-7-7-7-7--5-4-|-5---------|--------|
|--3--3-3-3-3-3--3-3-|--5--5-5-5-5-5--3-2-|-5---------|--------|
|--------------------|--------------------|-3---------|--------|
|
|  H.            Q      H.            Q     H    H      Wx3
|--------------------|--------------------|-----------|--------|
|-13------------13S==|=15------------15S==|=8---------|--------|
|--------------------|--------------------|-----------|--------|
|--------------------|--------------------|-----------|--------|
|--------------------|--------------------|-----------|--------|
|--------------------|--------------------|-----------|--------|


 Breakdown
  N.C.
  Gtr II
  Q  S S S E. S S S E.   S S S S S S S S S E. S S E
|-3--5-3---3--5-3---3--|-5-3---7-3---5-3---3--5---3-|
|-3------3--------3----|-----3-----3-----3------3-3-|
|----------------------|----------------------------|
|----------------------|----------------------------|
|----------------------|----------------------------|
|----------------------|----------------------------|


  Q  S S S E. S S S E.   S S S S S S S S H
|-3--5-3---3--5-3---3--|----------------------|
|-3------3--------3----|-------------3-5-3----|
|----------------------|-5-0-0-5-0-0----------|
|----------------------|----------------------|
|----------------------|----------------------|
|----------------------|----------------------|


  Q  S S S E. S S S E.   S S S S S S S S S E. S S E
|-3--5-3---3--5-7-5-3--|-5-3---7-3---5-3---3--5---3-|
|-3------3-------------|-----3-----3-----3------3-3-|
|----------------------|----------------------------|
|----------------------|----------------------------|
|----------------------|----------------------------|
|----------------------|----------------------------|


  Q  S S S E. S S S E.   S S S S S S S S H
|-3--5-3---3--5-3---3--|----------------------|
|-3------3--------3----|-------------3-5-3----|
|----------------------|-5-0-0-5-0-0----------|
|----------------------|----------------------|
|----------------------|----------------------|
|----------------------|----------------------|
|
|                        Gtr III
| W                      S S S S S S S S H
|----------------------|----------------------|
|----------------------|-------------3-5-3----|
|----------------------|-5-0-0-5-0-0----------|
|----------------------|----------------------|
|----------------------|----------------------|
|----------------------|----------------------|


 Bridge
  E5                    G5
  Gtrs II, III
  S S S S E Q.   S E.   S S S S E Q  E S S E
|---------------------|----------------------|
|---------------------|----------------------|
|---------------------|----------------------|
|-2-2-2-2-2-----------|-5-5-5-5-5----5---5-5-|
|-2-2-2-2-2-----------|-5-5-5-5-5----5---5-5-|
|-0-0-0-0-0------0-2--|-3-3-3-3-3----3---3-3-|


  E5                    G5
  S S S S E Q.   S E.   S S S S E H    E
|---------------------|------------------|
|---------------------|------------------|
|---------------------|------------------|
|-2-2-2-2-2-----------|-5-5-5-5-5--------|
|-2-2-2-2-2-----------|-5-5-5-5-5--------|
|-0-0-0-0-0------0-2--|-3-3-3-3-3--------|


  E5                    G5                   C5                D5
                                             Gtr III
                                             PM------------------------------|
  S S S S E Q.   S E.   S S S S E Q  E E E   E E E E E E E E   E E E E E E E E
|---------------------|--------------------|-----------------|-----------------|
|---------------------|--------------------|-----------------|-----------------|
|---------------------|--------------------|-----------------|-----------------|
|-2-2-2-2-2-----------|-5-5-5-5-5----5---5-|-5-5-5-5-5-5-5-5-|-7-7-7-7-7-7-7-7-|
|-2-2-2-2-2-----------|-5-5-5-5-5----5---5-|-3-3-3-3-3-3-3-3-|-5-5-5-5-5-5-5-5-|
|-0-0-0-0-0------0-2--|-3-3-3-3-3----3---3-|-----------------|-----------------|
|
|                                            Gtr I
| W                     W                    E E E Q   E Q     E E E Q   E Q
|---------------------|--------------------|-------3---------|-------5---------|
|---------------------|--------------------|-------5---------|-------7---------|
|---------------------|--------------------|-----5-----5-----|-----7-----7-----|
|---------------------|--------------------|---5---------5---|---7---------7---|
|---------------------|--------------------|-3---------------|-5---------------|
|---------------------|--------------------|-----------------|-----------------|


 Out-Chorus
  C5                         D5
  Gtr III
   E  E   E  E  E  E  E  E    E  E  E  E  E  E  E  E
|--------------------------|-------------------------|
|--------------------------|-------------------------|
|--5--5---5--5--5--5--5--5-|--7--7--7--7--7--7--7--7-|
|--5--5---5--5--5--5--5--5-|--7--7--7--7--7--7--7--7-|
|--3--3---3--3--3--3--3--3-|--5--5--5--5--5--5--5--5-|
|--------------------------|-------------------------|
|
| Gtr II
|  E  E   E  E  E  E  E  E    E  E  E  E  E  E  E  E
|--------------------------|-------------------------|
|--------------------------|-------------------------|
|-17-17--17-17-17-17-17-17-|-14-14-14-14-14-14-14-14-|
|--x--x---x--x--x--x--x--x-|--x--x--x--x--x--x--x--x-|
|-15-15--15-15-15-15-15-15-|-12-12-12-12-12-12-12-12-|
|--------------------------|-------------------------|
|
| Gtr I
|  E  H.                 E    W
|-^3-----------------------|-------------------------|
|-^5-----------------------|-------------------------|
|-^5-----------------------|-------------------------|
|-^5-----------------------|-------------------------|
|-^3-----------------------|-------------------------|
|--------------------------|-------------------------|


  G5                        E5
   E  E  E  E  E  E  E  E    E  E  E  E  E  E  E  E
|-------------------------|-------------------------|
|-------------------------|-------------------------|
|-------------------------|-------------------------|
|--5--5--5--5--5--5--5--5-|--2--2--2--2--2--2--2--2-|
|--5--5--5--5--5--5--5--5-|--2--2--2--2--2--2--2--2-|
|--3--3--3--3--3--3--3--3-|--0--0--0--0--0--0--0--0-|
|
|  E  E  E  E  E  E  E  E    E  E  E  E  E  E  E  E
|-------------------------|-------------------------|
|-------------------------|-------------------------|
|-16-16-16-16-16-16-16-16-|-16-16-16-14-14-16-16-12-|
|--x--x--x--x--x--x--x--x-|--x--x--x--x--x--x--x--x-|
|-14-14-14-14-14-14-14-14-|-14-14-14-12-12-14-14-10-|
|-------------------------|-------------------------|
|
|  W                         W
|-------------------------|-------------------------|
|-------------------------|-------------------------|
|-------------------------|-------------------------|
|-------------------------|-------------------------|
|-------------------------|-------------------------|
|-------------------------|-------------------------|


  C5                        D5
   E  E  E  E  E  E  E  E    E  E  E  E  E  E  E  E
|-------------------------|-------------------------|
|-------------------------|-------------------------|
|--5--5--5--5--5--5--5--5-|--7--7--7--7--7--7--7--7-|
|--5--5--5--5--5--5--5--5-|--7--7--7--7--7--7--7--7-|
|--3--3--3--3--3--3--3--3-|--5--5--5--5--5--5--5--5-|
|-------------------------|-------------------------|
|
|  E  E  E  E  E  E  E  E    E  E  E  E  E  E  E  E
|-------------------------|-------------------------|
|-------------------------|-------------------------|
|-17-17-17-17-17-17-17-17-|-19-19-19-19-19-19-19-19-|
|--x--x--x--x--x--x--x--x-|--x--x--x--x--x--x--x--x-|
|-15-15-15-15-15-15-15-15-|-17-17-17-17-17-17-17-17-|
|-------------------------|-------------------------|


  G5                        E5
   E  E  E  E  E  E  E  E    E  E  E  E  E  E  E  E
|-------------------------|-------------------------|
|-------------------------|-------------------------|
|-------------------------|-------------------------|
|--5--5--5--5--5--5--5--5-|--2--2--2--2--2--2--2--2-|
|--5--5--5--5--5--5--5--5-|--2--2--2--2--2--2--2--2-|
|--3--3--3--3--3--3--3--3-|--0--0--0--0--0--0--0--0-|
|
|  E  E  E  E  E  E  E  E    E  E  E  E  E  E  E  E
|-------------------------|-------------------------|
|-------------------------|-------------------------|
|-12-12-12-12-12-12-12-12-|-12-12-12-12-12-12-12-12-|
|--x--x--x--x--x--x--x--x-|--x--x--x--x--x--x--x--x-|
|-10-10-10-10-10-10-10-10-|-10-10-10-10-10-10-10-10-|
|-------------------------|-------------------------|


  C5                    D5
    E  E E E E E  E E    E  E E E E E  E E
|---------------------|--------------------|
|---------------------|--------------------|
|---5--5-5-5-5-5--5-5-|--7--7-7-7-7-7--7-7-|
|---5--5-5-5-5-5--5-5-|--7--7-7-7-7-7--7-7-|
|---3--3-3-3-3-3--3-3-|--5--5-5-5-5-5--5-5-|
|---------------------|--------------------|
|
|   H.            Q      H.            Q
|---------------------|--------------------|
|-/13------------13S==|=10------------10S==|
|---------------------|--------------------|
|---------------------|--------------------|
|---------------------|--------------------|
|---------------------|--------------------|


  G5                   E5
   E  E E E E E  E E   E  E E E E E E E
|--------------------|------------------|
|--------------------|------------------|
|--------------------|------------------|
|--5--5-5-5-5-5--5-5-|-2--2-2-2-2-2-2-2-|
|--5--5-5-5-5-5--5-5-|-2--2-2-2-2-2-2-2-|
|--3--3-3-3-3-3--3-3-|-0--0-0-0-0-0-0-0-|
|
|  H.            Q     H.           Q
|--------------------|------------------|
|-12------------12S==|=8------------8---|
|--------------------|------------------|
|--------------------|------------------|
|--------------------|------------------|
|--------------------|------------------|


  C5                   D5
   E  E E E E E  E E    E  E E E E E  E E
|--------------------|--------------------|
|--------------------|--------------------|
|--5--5-5-5-5-5--5-5-|--7--7-7-7-7-7--7-7-|
|--5--5-5-5-5-5--5-5-|--7--7-7-7-7-7--7-7-|
|--3--3-3-3-3-3--3-3-|--5--5-5-5-5-5--5-5-|
|--------------------|--------------------|
|
|  H.            Q      H.            Q
|--------------------|--------------------|
|-13------------13S==|=10------------10S==|
|--------------------|--------------------|
|--------------------|--------------------|
|--------------------|--------------------|
|--------------------|--------------------|


  C5                   D5
   E  E E E E E  E E    E  E E E E E  E E
|--------------------|--------------------|
|--------------------|--------------------|
|--5--5-5-5-5-5--5-5-|--7--7-7-7-7-7--7-7-|
|--5--5-5-5-5-5--5-5-|--7--7-7-7-7-7--7-7-|
|--3--3-3-3-3-3--3-3-|--5--5-5-5-5-5--5-5-|
|--------------------|--------------------|
|
|  H.            Q      H.            Q
|--------------------|--------------------|
|-13------------13S==|=10------------10S==|
|--------------------|--------------------|
|--------------------|--------------------|
|--------------------|--------------------|
|--------------------|--------------------|


                                            Q=100        Q=85
  C5                   D5            C5 B5  G5           F#5     Em
                                            PM-------------|
   E  E E E E E  E E    E  E E E E E  E E   E  E E E E E E +E     H    +H
|--------------------|--------------------|--------------------|-!0----(0)----*|
|--------------------|--------------------|--------------------|-!0----(0)----*|
|--5--5-5-5-5-5--5-5-|--7--7-7-7-7-7--5-4-|--------------------|-!0----(0)----*|
|--5--5-5-5-5-5--5-5-|--7--7-7-7-7-7--5-4-|-5--5-5-5-5-5-4-(4)-|-!2----(2)----*|
|--3--3-3-3-3-3--3-3-|--5--5-5-5-5-5--3-2-|-5--5-5-5-5-5-4-(4)-|-!2----(2)----*|
|--------------------|--------------------|-3--3-3-3-3-3-2-(2)-|-!0----(0)----*|
|
|  H.            Q      H.            Q     H.           Q        W
|--------------------|--------------------|--------------------|--------------*|
|-13------------13S==|=15------------15S==|=8------------7-----|--8-----------*|
|--------------------|--------------------|--------------------|--------------*|
|--------------------|--------------------|--------------------|--------------*|
|--------------------|--------------------|--------------------|--------------*|
|--------------------|--------------------|--------------------|--------------*|





Comments


Popular Unwritten Law tabs & chords
Blame It On Me Bass Tabs
Cailin Bass Tabs
Your My Angel Bass Tabs
Because Of You Tabs
Fight Tabs
Harmonics Tabs
Seein' Red 2 Tabs
Seeing Red (Intro) Tabs
Shallow Tabs
The Legend Of Johnny And Sarah Tabs


Song lyrics



↑ Back to top | Tablatures and chords are parodies/interpretations of the original songs. You may use it for private study, scholarship, research or language learning purposes only
© 2014 AZChords.com Contact us | Privacy policy | DMCA | Add/correct tabs | Request tabs | Top 50 tabs