» » »

Unwritten Law, Blame It On Me Tabs (ver.2)

Artists:  A B C D E F G H I J K L M N O P Q R S T U V W X Y Z # 

Blame It On Me Tabs (ver.2)

Unwritten Law Tabs
 Rating:
4/5 (7 votes)
Blame It On Me lessons Tabs too difficult? Try these video lessons and learn fast
1
                Tuning: Standard (EADGBe)

This is a great up-tempo song by Unwritten Law which is on two of their albums. The
normal version is on Elva but the live acoustic one which I am tabbing out here is on
but it is NOT the way that Unwritten Law plays this song. First of all they are not
cr*p and DON'T need to play in Drop D tuning. If you are a beginner then you might use
Drop D tuning but I've been playing for a few years now and absolutely dig Unwritten Law
so I just wanna play this song RIGHT! Another thing is that in this song on the DVD they
have THREE guitars but they all pretty much play the same thing so I've only kinda tabbed
it out for two. The second guitar just plays the chords I put above the lines. So here
you go!!!

Chords Used:
   E   A   G   D   C
e--0---0---3---2---3--| 
B--0---1---3---3---3--|
G--1---2---0---2---0--|
D--2---2---0---0---2--|
A--2---0---2-------3--|
E--0---0---3----------|

Legend:
~ let ring
* rest

Intro pt. 1 (Tremelo picking)
  E E E E E E E 
e-------------------------------------|
B-------------------------------------|
G-------------------------------------|
D-2-2-2-2-2-2-2-----------------------|
A-2-2-2-2-2-2-2-----------------------|
E-0-0-0-0-0-0-0-----------------------|

Intro pt. 2
  E       A       E
e-------------------------------------|
B-------------------------------------|
G-------------------------------------|
D-2-5-7-8-7-5-7-8-2-------------------|
A-2-5-7-8-7-5-7-8-2-------------------|
E-0-3-5-6-5-3-5-6-0-------------------|

Intro pt. 3
  E       A       E   (which should end up like EE A)
e-------------------------------------|
B-------------------------------------|
G-------------------------------------|
D-2-5-7-8-7-4-5-4-2-------------------|
A-2-5-7-8-7-4-5-4-2-------------------|
E-0-3-5-6-5-2-3-2-0-------------------|

Verse pt. 1
          E E G A A   E E G A A E
e-*---------------------------------------|
B-*---------------------------------------|
G-*---------------------------------------|
D-*-------2-2-5-7-8---2-2-8-7-5-2---------|
A-*-------2-2-5-7-8---2-2-8-7-5-2---------|
E-*-------0-0-3-5-6---0-0-6-5-3-0---------|
* Rest until Scott finishes the line

Verse pt. 2
  E          EE          EE            EEEEEEEE
e----------------------------------------------------------|
B----------------------------------------------------------|
G----------------------------------------------------------|
D-2xxxxxxxxxx22xxxxxxxxxx22xxxxxxxxxxxx22222222------------|
A-2xxxxxxxxxx22xxxxxxxxxx22xxxxxxxxxxxx22222222------------|
E-0xxxxxxxxxx00xxxxxxxxxx00xxxxxxxxxxxx00000000------------|

Verse pt. 3
  E E E E E E E E E E E E E E E E
e----------------------------------------------|
B----------------------------------------------|
G----------------------------------------------|
D-2-2-2-2-2-2-2-2-2-2-2-2-2-2-2-2--------------|
A-2-2-2-2-2-2-2-2-2-2-2-2-2-2-2-2--------------|
E-0-0-0-0-0-0-0-0-0-0-0-0-0-0-0-0--------------|

Chorus pt. 1
  E E E E E E E E A A A A A A A A G G G G G G G G D D D D D D D D
e-----------------------------------------------------------------|
B-----------------------------------------------------------------|
G-----------------------------------------------------------------|
D-2-2-2-2-2-2-2-2-7-7-7-7-7-7-7-7-5-5-5-5-5-5-5-5-9-9-9-9-9-9-9-9-|
A-2-2-2-2-2-2-2-2-7-7-7-7-7-7-7-7-5-5-5-5-5-5-5-5-9-9-9-9-9-9-9-9-|
E-0-0-0-0-0-0-0-0-5-5-5-5-5-5-5-5-3-3-3-3-3-3-3-3-7-7-7-7-7-7-7-7-|

Chorus pt. 2
  EE E AA A GG G DD D EE E AA A D
e------------------------------------------------------------|
B------------------------------------------------------------|
G------------------------------------------------------------|
D-22-2-77-7-55-5-99-9-22-2-77-7-9~---------------------------|
A-22-2-77-7-55-5-99-9-22-2-77-7-9~---------------------------|
E-00-0-55-5-33-3-77-7-00-0-55-5-7~---------------------------|

Bridge pt.1
  EEE  EEE  EEEE  EEE 
e-----------------------------------|
B-----------------------------------|
G-----------------------------------|
D-222--222--2222--222---------------|
A-222--222--2222--222---------------|
E-000--000--0000--000---------------|

Bridge pt. 2
  EEEE EEEE EEEE EEEE
e-----------------------------------|
B-----------------------------------|
G-----------------------------------|
D-2222-2222-2222-2222---------------|
A-2222-2222-2222-2222---------------|
E-0000-0000-0000-0000---------------|

Bridge pt. 3
  C G C G C G C G  E E E E A A A A
e-----------------------------------|
B-----------------------------------|
G-5---5---5---5---------------------|
D-5-5-5-5-5-5-5-5--2-2-2-2-7-7-7-7--|
A-3-5-3-5-3-5-3-5--2-2-2-2-7-7-7-7--|
E---3---3---3---3--0-0-0-0-5-5-5-5--|

  C G C G C G C G  E E E E D D D D
e-----------------------------------|
B-----------------------------------|
G-5---5---5---5---------------------|
D-5-5-5-5-5-5-5-5--2-2-2-2-9-9-9-9--|
A-3-5-3-5-3-5-3-5--2-2-2-2-9-9-9-9--|
E---3---3---3---3--0-0-0-0-7-7-7-7--|

  C G C G C G C G  E       A 
e-----------------------------------|
B-----------------------------------|
G-5---5---5---5---------------------|
D-5-5-5-5-5-5-5-5--2~~~~~~-7~~~~~~--|
A-3-5-3-5-3-5-3-5--2~~~~~~-7~~~~~~--|
E---3---3---3---3--0~~~~~~-5~~~~~~--|

Outro
  D A G G E
e-------------------------------------|
B-------------------------------------|
G-------------------------------------|
D-9-7-5-4-2---------------------------|
A-9-7-5-4-2---------------------------|
E-7-5-3-2-0---------------------------|

Song Order:
Intro pt. 1 x1
Intro pt. 2 x5 (Elva version only x3)
Intro pt. 3 x1
Verse pt. 1 x2
Verse pt. 2 x1
Verse pt. 3 x1
Intro pt. 2 x3
Intro pt. 3 x1
Chorus pt. 1 x2
Chorus pt. 2 x1
Intro pt. 2 x1
Intro pt. 3 x1
Verse pt. 1 x2
Verse pt. 2 x1
Verse pt. 3 x1
Intro pt. 2 x3
Intro pt. 3 x1
Chorus pt. 1 x2
Chorus pt. 2 x1
Bridge pt. 1 x2
Bridge pt. 2 x1
Bridge pt. 3 x1
Chorus pt. 1 x2
Chorus pt. 2 x1
Outro x1

Lyrics:

Sorry for making it so complicated I just wanted a top quality tab. That C chord I use
is actually a Cadd9 but I used C to save space. Queries, complaints, corrections or
            
Submit corrections

comments powered by Disqus
↑ Back to top | Unwritten Law Tabs for Blame It On Me. Lyrics for acoustic guitar and electric guitar. 1 Tablatures and chords are parodies/interpretations of the original songs. You may use it for private study, scholarship, research or language learning purposes only