» » »

Unwritten Law, Before I Go Tabs (ver.1)

Artists:  A B C D E F G H I J K L M N O P Q R S T U V W X Y Z # 

Before I Go Tabs (ver.1)

Unwritten Law Tabs
 Rating:
3.8/5 (5 votes)
Before I Go lessons Tabs too difficult? Try these video lessons and learn fast
1
                


*I copied this from xguitar.com and the guy that posted it there
 probly copied it from somewhere else and that guy probly copied
 it from somewhere else, but does anyway really give a sh*t?
 Other than the guy that actually made the tab. lol

*I did fix up little bits of the solo though

 anyway, here it is.

Notation Guide

pm	Palm mute
~  	Vibrato
/  	slide up
\  	slide down
[B1]	bend whole step
[B2]	bend half step
r	release bend
p	pull off
h	hammer on
&H	hold note
( )	ghost note


Standard Tuning

Intro & Verse

Gtr. 1 & 2                                            unsure about this end part
E-----------------+-----------------+-----------------+-------------+
B--------0-0-0-0--+--------3-3-3-3--+--------3-3-3-3--+-------------+
G--------0-0-0-0--+--------2-2-2-2--+--------0-0-0-0--+-------------+
D--------2-2-2-2--+--------0-0-0-0--+--------0-0-0-0--+-------------+
A--2--2-----------+-----------------+--2--2-----------+--77777--7\--+
E--0--0-----------+--2--2-----------+--3--3-----------+--55555--5\--+
  pm		    pm		      pm		 pm...|


Chorus (with flanger effect or something)

G	  Cadd9
Before I go

G	        Cadd9
I need you to know

G     D    Cadd9
I'm still alive in you

G	D      Cadd9
Its my time to go


Repeat Verse (After the chorus there's a little solo interlude thingy played by the 2nd
guitarist, I tried working it out but it didn't sound to good so I left it out.)


Repeat chorus


After 2nd chorus
Heavy Disortion
play 3x             	play on 4th time
E-------------+-------------++----------++
B-------------+-------------++----------++
G-99999-55555-+-------77777-++-77777777-++
D-99999-55555-+-55555-77777-++-77777777-++
A-77777-33333-+-55555-55555-++-55555555-++
E-------------+-33333-------++----------++


Guitar Solo (play verse under solo)

note: the notes in the brackets are ghost notes, do not play them!

E-----------------------------------------------------------------------+
B-----------------------------------------------------------------------+
G-----------12----------------12h14-14-14[B2]r(14)p12-14-12----12-------+
D--12h14~~~----14-14~~~-12h14-------------------------------14----14-14-+
A-----------------------------------------------------------------------+
E-----------------------------------------------------------------------+

E-----------12---------------------------------------------------------------|
B-15[B1]&H-----15--12--15[B1]r--15[B2]r-(15)-12--------12-------12-----------|
G----------------------------------------------14[B2]r----14[B2]---14-12-----|
D------------------------------------------------------------------------14--|
A----------------------------------------------------------------------------|
E----------------------------------------------------------------------------|

E----------------------------------------+-------------------------------|
B--14-14-1212-14-12----------------------+-------------------------------|
G--14-14-1212-14-12-14-12----12----------+-------------------------------|
D-------------------------14-----14-14\--+-------------------------------|
A----------------------------------------+12--12[B2]--12p10--12p10-------|
E----------------------------------------+--------------------------12/--|

E----------------------------------------------------------------------------|
B---------------------------------------------12--------12-------------------|
G--------------------------------12h14-14[B2]r--14[B2]r----14p12----12-------|
D-------------------12-----12h14---------------------------------14----14~~~-|
A----------10h12/14-----14---------------------------------------------------|
E-10-10h12-------------------------------------------------------------------|

After the solo:
E--------------------------------+
B--------------------------------+
G--------------------------------+
D----------------------------22--+
A--22222---22222---22222---2222--+
E--00000---00000---00000---0000--+
   pm...|  pm...|  pm...|  pm


Back to chorus


Heavy Disortion
play 3x             		on 4th time
E-------------+-------------++-----------------------------------------++
B-------------+-------------++-----------------------------------------++
G-99999-55555-+-------77777-++-7/9-7/9-7/9-7/9-11/12-11/12-11/12-11/12-++
D-99999-55555-+-55555-77777-++-7/9-7/9-7/9-7/9-11/12-11/12-11/12-11/12-++
A-77777-33333-+-55555-55555-++-5/7-5/7-5/7-5/7--9/10--9/10--9/10--9/10-++
E-------------+-33333-------++-----------------------------------------++


Back to verse (outro)
            
Submit corrections

comments powered by Disqus
↑ Back to top | Unwritten Law Tabs for Before I Go. Lyrics for acoustic guitar and electric guitar. 1 Tablatures and chords are parodies/interpretations of the original songs. You may use it for private study, scholarship, research or language learning purposes only