>
 >
Because Of You

Because Of You Guitar Tabs

Unwritten Law - Because Of You chords, tabs, tablatures, lyrics

Guitar lessons | Add/correct | Request | Top 50 tabs Artists:  A B C D E F G H I J K L M N O P Q R S T U V W X Y Z 0-9

Because Of You Guitar Tabs – Unwritten Law

CD, Sheet music, Poster

Do you like Because Of You? Share with your friends now
Bass TabsTabs
“Because of You” by: Unwritten Law

Tuning: Eb Ab Db Gb Bb eb


 /0:01 Intro (Clean)                                 /0:09 Verse 1 (Clean)
|--5-----5-----7-----7-----8-----8----10----10-----------------------------------------------|
|-----5-----5-----5-----5-----5-----5-----5-----5---|---------------------------------5------|
|*-------------------------------------------------*|*------------------------------5---5----|
|*-------------------------------------------------*|*----------------------------3----------|
|---------------------------------------------------|--------------------------------------3-|
|------------------------|-------------------------------------------------------------------|
                         |                           \
              2. guitar  |----------------------------
                         |----------------------------|
                         |----------------------------|
                         |----------------------------|
                         |----7--6-6-7-----7--6--7----|
                         |-5------------5-------------|

                   _________  
                  | 1.      \ /0:27 Chorus (Distortion) rythm guitar 
|-----------------|--------------------------------------------------------------------------|
|------------3---------------|---------------------------------------------------------------|
|---5----------4--|---------*|*--------------------------------10-----------10-10--12---12---|
|-5---5-----------|---------*|*-5-/-----7----10----10-----5----10-----------10-10------------|
|----------5------|----------|--5-/-----7----10----10-----5-----8----8-8-7-7-7--7----10---10-|
|--------3----------3--3/4~-----3-/-----5-----7-----8-----3----------------------------------|
                                                                     p.m....|
          _________
         | 2.      \                               /0:49 Verse 2 (Clean)
|--------|-----------------------------------------------------------------------------------|
|-------------------|-----------------------------|---5--5---------5-5-----8-8--------5------|
|-12----*|----------|-----------------------------|*--2--2-------2-2-2---7-7-7------5---5----|
|-------*|----------|-----------------------------|*--2--2-------2-2-2---5-5-5----3----------|
|--(10)--|----------|-----7--6-6-7~-----7--6--7~--|----------------------5-----------------3-|
|----------3--3/4~-----5-------------5-------------------------------------------------------|

                   _________
                  | 1.      \ /1:06 Chorus 2     /1:26 Interlude part a                /1:35
|-----------------|--------------------------------------------------------------------------|
|------------3---------------|------------------|-------------------------------------|------|
|---5----------4--|---------*|-----Chorus-1-----|-------------------------------------|*----9|
|-5---5-----------|---------*|------------------|-3------2~-----3----5--3--2~----5----|*-7---|
|----------5------|----------|------------------|-3------2~-----3----5--3--2~----5----|------|
|--------3----------3--3/4~-----------------------1------0------1----3--1--0-----3-----------|

                                                                                _____________
  Interlude part b                                                             | 1. 
|------------------------------------------------------------------------------|-------------|
|--------------------------------------------------------------------------------------------|
|--8-8-9~-----9--8--9~------9--8-8-9~-----9--8--9~------9--8-8-9~-----9--8--9~-|----9--8-8-9~|
|----------7-------------------------------------------------------------------|-------------|
|-----------------------10------------10-------------8-------------8-----------|10-----------|
|--------------------------------------------------------------------------------------------|

 _______________  __________________
                \| 2.               \ /1:53 Chorus 3       /2:31 Outro (Clean)
|--------------------------------------------------------------------------------------------|
|----------------|-------------------|--------------------|-5~T~-------1-----1--5~T~----5----|
|-----9--8--9~--*|----9--8-8-9~------|-----Chorus-1--4x---|-2~T~----2-----4-----2~T~-------4-|
|---------------*|-------------------|--------------------|-2~T~----------------2~T~---------|
|-10-------------|10------------10---|--------------------|----------------------------------|
|--------------------------------------------------------------------------------------------|


|-------------------------------------------------||
|-5~T~-------1-----1--5~T~----------5~T~---\-\----||
|-2~T~----2-----4-----2~T~----4--5--2~T~---\-\----||
|-2~T~----------------2~T~----------2~T~---\-\----||
|------------------------------------------\-\----||
|-------------------------------------------------||

-----------------------------------------------------------------------------------------------

2. guitar during chorus (clean) 

|--5-----5-----7-----7-----8-----8----10----10----------11--------12-------------------------|
|-----5-----5-----5-----5-----5-----5-----5-----5----10---10~-------10~----------------------|
|*-------------------------------------------------12----------12-------12---12---12---12---*|
|*------------------------------------------------------------------------------------------*|
|-------------------------------------------------------------------------10---10---10---10--|
|--------------------------------------------------------------------------------------------|



 /1:35 Rythm guitar during Interlude part b
 -------------------------------------------------------------------------|
|-------------------------------------------------------------------------|
|-------------------------------------------------------------------------|
|--7--------5--------3--------5--------7--------5--------3--------2-----5-|
|--7--------5--------3--------5--------7--------5--------3--------2-----5-|
|--5--------3--------1--------3--------5--------3--------1--------0-----3-|

-----------------------------------------------------------------------------------------------
=======================
=TABLATURE EXPLANATION=
=======================

* = palm mute

A.H. = Artificial Harmonic

pm..| = Palm mute

h = hammer on

p = pull off

/ = slide up

\ = slide down

~ = Vibrato

b() = Bend

x\ = Pick Slide

--------
--------
---12--- = Tremolo pick
----/---
----/---
----/---

---.---
--12--- = Staccato
-------
-------
-------

|     |
|     |
|*   *| = repeat from * to *
|*   *| 
|     |

T = Tremolo bar





Comments


Popular Unwritten Law tabs & chords
Elva Bass Tabs
Slow Dance Bass Tabs
Teenage Suicide Bass Tabs
Seein' Red Chords
Actress, Model.. Tabs
Geronimo 1 Tabs
Rescue Me Tabs
Sound Sirens Tabs
Teenage Suicide 1 Tabs
Teenage Suicide 2 Tabs


Song lyrics



↑ Back to top | Tablatures and chords are parodies/interpretations of the original songs. You may use it for private study, scholarship, research or language learning purposes only
© 2014 AZChords.com Contact us | Privacy policy | DMCA | Add/correct tabs | Request tabs | Top 50 tabs