» » »

Unwound, Swan Tabs (ver.1)

Artists:  A B C D E F G H I J K L M N O P Q R S T U V W X Y Z # 

Swan Tabs (ver.1)

Unwound Tabs
Rating:
0/5 (0 votes)
Swan lessons Tabs too difficult? Try these video lessons and learn fast
                Intro:
the recording begins with the sound of a bunch of guitars being 
played behind the bridge (or behind the nut).

guitar:
|-0-------0-----------|
|---------------------|
|-2-------2-----------|
|-2-------2-----------|
|-0-------0---0-2-3-0-|
|---------------------|
  1 + 2 + 3 + 4 + 5 + 
(the intro and verse are played in 5/4 time)

bass:
|---------------------|
|---------------------|
|---------------------|
|-0-------0-----------|

Verse:
guitar 1:
|-0-------0-----------|
|---------------------|
|-2-------2-----------|
|-2-------2-----------|
|-0-------0---0-2-3-0-|
|---------------------|
 "art     wrong..."

guitar 2:
|-5-------5-----------|
|-4-------4-----------|
|-5-------5-----------|
|---------------------|
|-------------0-2-3-0-|
|---------------------|

bass:
|---------------------|
|---------------------|
|-0-------0---0-2-3-0-|
|-0-------0-----------|

Chorus (close as I could get):
guitar 1 (strum not shown):
|-9---9---9---10---|
|-10--10--10--10---|
|-7---7---7---7----|
|-------------0----|
|------------------|
|------------------|

guitar 2:
same as gtr 1.

guitar 2 (on the repeat):
|-------------------------| play this   |---|
|-----------------------3-| <--------   |---|
|-----0---0-2-2-2-0-2-0-0-| three times |-7-|
|-0-2---2-----------------| and then    |-7-|
|-------------------------| play this   |-5-|
|-------------------------| -------->   |-5-|

bass (strum not shown):
|-----------------|
|-----------------|
|-3---2---1---5---|
|-----------------|

hold the last chord of the chorus for the outro, then make a merry
racket.


i rock an A chord for the verse but i drop my ring finger to the 
third fret to get that out 'o tune sound.

------3
----2--
----0--    low e
            
Submit corrections

comments powered by Disqus
↑ Back to top | Unwound Tabs for Swan. Lyrics for acoustic guitar and electric guitar. Tablatures and chords are parodies/interpretations of the original songs. You may use it for private study, scholarship, research or language learning purposes only