>
 >
Negated

Negated Guitar Tabs

Unwound - Negated chords, tabs, tablatures, lyrics

Guitar lessons | Add/correct | Request | Top 50 tabs Artists:  A B C D E F G H I J K L M N O P Q R S T U V W X Y Z 0-9

Negated Guitar Tabs – Unwound

CD, Sheet music, Poster

Do you like Negated? Share with your friends now
Tabs
intro / verse
bass
|-----------------------------------------------------------------|
|-------------------------2-2-3-3---------------------------------|
|-0---0-0-0-0-0-0---0-0-0---------------------------------2-2-3-3-|
|---------------------------------4---4-4-4-4-4-4---4-4-0---------|

|-----------------------------------------------------------------|
|-------------------------2-2-3-3---------------------------------|
|-0---0-0-0-0-0-0---0-0-0---------------------------------2-2-3-3-|
|---------------------------------4---4-4-4-4-4-4---4-4-0---------|

guitar
|-0-0-0-0-0-0-0-0-0-0-0-0-0-0-0-0-0-0-0-0-0-0-0-0-0-0-0-0-0-0-0-0-|
|-9-9-9-9-9-9-9-9-9-9-9-9-9-9-9-9-8-8-8-8-8-8-8-8-8-8-8-8-8-8-8-8-|
|-----------------------------------------------------------------|
|-----------------------------------------------------------------|
|-----------------------------------------------------------------|
|-----------------------------------------------------------------|
lyric:       "never heard of...           what's the use"

|-------------------------------------0-------0-------0-------0---|
|---------0-----------0---------------0-------0-------0-------0---|
|-----8-----------8-----------8s9-----9-------9-------9-------9---|
|-----------------------------------------------------------------|
|-7-----------7-----------7-------8-8-8-8-8-8-8-8-8-8-8-8-8-8-8---|
|-----------------------------------------------------------------|
     "what's the point in...          after years of abuse"

chorus - All I can really hear through this part is the cymbal.
bass - Vern might play the same part as the verse, or he might play the part below.
I can't really tell.
|-----------------------------------------------------------------|
|-----------------------------------------------------------------|
|-----------------------------------------------------------------|
|-5-5-5-5-5-5-5-5-5-5-5-5-5-5-5-5-4-4-4-4-4-4-4-4-4-4-4-4-4-4-4-4-|
lyric:                                   "it's not far away..."

guitar - i don't know

chorus continued
bass - first time
|-----------------------------------------------------------------|
|-------------------------2-2-3-3---------------------------------|
|-0-0-0-0-0-0-0-0-0-0-0-0---------------------------------2-2-3-3-|
|---------------------------------4-4-4-4-4-4-4-4-4-4-4-0---------|

bass - second time
|-----------------------------------------------------------------|
|-----------------------------------------------------------------|
|-----------------------------------------------------------------|
|-5-5-5-5-5-5-5-5-5-5-5-5-5-5-5-5-4-4-4-4-4-4-4-4-4-4-4-4-4s8-8-8-|
4s8 = slide from 4 to 8

guitar - both times
|-----------------------------------------------------------------|
|---------------------------------4-----4-----4-----4-----4-------|
|-2-----2-----2-----2-----2-----------4-----4-----4-----4-----4---|
|-----2-----2-----2-----2-----2-----------------------------------|
|-----------------------------------------------------------------|
|-----------------------------------------------------------------|
lyric:           "here's the exit         please disregard"

bridge
bass
|-----------------------------------------------------------------|
|-------------------------2-2-3-3---------------------------------|
|-0-0-0-0-0-0-0-0-0-0-0-0-----------------------------------------|
|---------------------------------4-4-4-4-4-4-4-4-4-4-4-4-4-4-4-4-|

|-----------------------------------------------------------------|
|-----------------------------------------------------------------|
|-0-0-0-0-0-0-0-0-0-0-0-0-0-0-0-0-1-1-1-1-1-1-1-1-1-1-1-1-1-1-1---|
|-----------------------------------------------------------------|

|-----------------------------------------------------------------|
|-----------------------------------------------------------------|
|s8---8-----8---8---8-8-8---8-8-8-9---9-----9---9---9-9-9-9-9-9-9-|
|---------8---------------8---------------9-----------------------|
s8 = slide up from 1 to 8

guitar - all i know is the first bar of the bridge
|-0-0-0-0-0-0-0-0-0-0-0-0-0-0-0-0-0-0-0-0-0-0-0-0-0-0-0-0-0-0-0-0-|
|-9-9-9-9-9-9-9-9-9-9-9-9-9-9-9-9-8-8-8-8-8-8-8-8-8-8-8-8-8-8-8-8-|
|-----------------------------------------------------------------|
|-----------------------------------------------------------------|
|-----------------------------------------------------------------|
|-----------------------------------------------------------------|

finale
bass - same as the bridge
guitar - i can't really hear it
the last bass note
|-----|
|-----|
|--0--|
|-----|





Comments


Popular Unwound tabs & chords
Lowest Common Denominator Bass Tabs
Bionic Chords
What Went Wrong Chords
Entirely Different Matters 1 Tabs
Fingernails On Chalkboard Tabs
For Your Entertainment Tabs
Laugh Track Tabs
Miserific Condition Tabs
Mkultra Tabs
October All Over Tabs


Song lyrics



↑ Back to top | Tablatures and chords are parodies/interpretations of the original songs. You may use it for private study, scholarship, research or language learning purposes only
© 2014 AZChords.com Contact us | Privacy policy | DMCA | Add/correct tabs | Request tabs | Top 50 tabs