» » »

Unwound, Mile Me Deaf Tabs (ver.1)

Artists:  A B C D E F G H I J K L M N O P Q R S T U V W X Y Z # 

Mile Me Deaf Tabs (ver.1)

Unwound Tabs
 Rating:
4/5 (4 votes)
Mile Me Deaf lessons Tabs too difficult? Try these video lessons and learn fast
1
                UNWOUND  MILE ME DEAF

e|-------------------------------------|-- x3 -|-------|
b|----------8--7-----------------------|-------|-------|
G|-7--8-9-9------9---9--------8--5/7---|-----5-|-------|
D|---------------------10-10-----------|-------|-------|
A|-5--6-7-7----------------------------|-------|-------|
E|---------------------8--8------------|-4-4---|-4\1/6-|

    e|--------------------------------|-- x3 -|-------|
    b|-----8--7-----------------------|-------|-------|
GTR G|-9-9------9---9--------8--5/7---|-----5-|-------|
 1  D|----------------10-10-----------|-------|-------| x4
    A|-7-7----------------------------|-------|-------|
    E|----------------8--8------------|-4-4---|-4\1/6-|

    e|--------------------------------|-- x3 -|-------|
    b|-----8--8--------------8--8-----|-------|-------|
GTR G|-----9--9--------------10-10----|-5-----|-------|
 2  D|--------------------------------|-6-----|-------| x4
    A|--------------------------------|-------|-------|
    E|--------------------------------|-------|-------|

    e|---------------------------------------------------------------|
    b|---4-3------6-8--------------------------8---------0-----------|
GTR G|-5------5-7--------5-5----5------------------------------------|
 1  D|-----------------7------7-------10--9h10----(9h)10----7--------| x2
    A|------------------------------7-------------------------10--10-|
    E|----------------------------0----------------------------------|

    e|---------------------------------------------------------------|
    b|---------------------------------------------------------------|
GTR G|-5--------7-------------------7--------------------------------| 
 2  D|-----------------7--------------------10-----9-----------------| x2
    A|--------------------------------------------------------10-----|
    E|---------------------------------------------------------------|

repeat all of above minus very first riff

e|-------------------------------|
b|-----1-------1---------1-------|
G|---3---3---3---3----3----3---3-|
D|-------------------------------| x3
A|-3-------3---------------------|
E|-----------------3---------3---|

e|------------|
b|-----0----0-|
G|---3----3---|
D|------------| 
A|-2----------|
E|------------|

    e|--------------------------------------------------------|
    b|--7-7-7-7-4*-(bend harmonic using strings near the nut)-|
GTR G|--8-8-8-8-----------------------------------------------|
 1  D|--6-6-6-6-----------------------------------------------| x4
    A|--------------------------------------------------------|
    E|--------------------------------------------------------|

    e|---------------------------|
    b|--7-7-7-7----6-9p6-9p6-8h9-|
GTR G|--8-8-8-8------------------|
 2  D|--6-6-6-6------------------| x4
    A|---------------------------|
    E|---------------------------|

    e|-------------------------------------------------------|
    b|--11--11-4*-(bend harmonic using strings near the nut)-|
GTR G|--12--12-----------------------------------------------|
 1  D|--10--10-----------------------------------------------| x4
    A|-------------------------------------------------------|
    E|-------------------------------------------------------|

    e|-----------------------|
    b|--11--11-----16--16----|
GTR G|--12--12-----17--17----|
 2  D|--10--10---------------| x4
    A|-------------15--15----|
    E|-----------------------|
            
Submit corrections

comments powered by Disqus
↑ Back to top | Unwound Tabs for Mile Me Deaf. Lyrics for acoustic guitar and electric guitar. 1 Tablatures and chords are parodies/interpretations of the original songs. You may use it for private study, scholarship, research or language learning purposes only