» » »

Unwound, Meet The Plastics Tabs (ver.1)

Artists:  A B C D E F G H I J K L M N O P Q R S T U V W X Y Z # 

Meet The Plastics Tabs (ver.1)

Unwound Tabs
 Rating:
4/5 (4 votes)
Meet The Plastics lessons Tabs too difficult? Try these video lessons and learn fast
                Unwound
"Meet the Plastics"

standard tuning

Intro
|----------------------|
|----------------------|
|-4-p3b-p0---3-p2b-p0--|
|----------------------|
|----------------------|
|----------------------|

Verse I
     [---let ring---]
|------------------------------------------------||
|-----0------------------------------------------||
|-----4---------------------4--3b^0-----3--2b^0--|| x4
|-----3------------------------------------------||
|------------------------------------------------||
|------------------------4-----------3-----------||
     "Meet the plastics..."

b^ = bend and release

Verse II
           [gradual bend]
|------------------------------------------------||
|-----4-------4-b-4-b-4--------------------------||
|-----4-------4-b-4-b-4-----4--3b^0-----3--2b^0--|| x4
|-----3------------------------------------------||
|------------------------------------------------||
|------------------------4-----------3-----------||
     "It's my pleasure..."

Chorus
|-------------------------------------------||
|-------12-10-----10-------8--------8-------||
|-------------12b----------0--------0-(0)---|| x4
|------------------------------5/6-----6----||
|-0--------------------7--------------------||
|-------------------------------------------||
       "Carbon copy..."

Verse I x4
Verse II x4
Chorus x4

Bridge
|-----------------------------------------------------||
|----0----0----0----0--/8--8-(8)8-8-(8)-8--8--8-8-8-8-||
|----4----4----4----4-------------------------9-9-9-9-|| x4
|---------4----5----5--/7-(7)-7-7-7^h9--9--9--9-9-9-9-||
|-----------------------------------------------------||
|-----------------------------------------------------||

Bridge outro                        (Intro riff)
|-0~--------(3)------------------------------------------|
|-0~---------0~---------6~-------------------------------|
|-8~---------0~---------0~----------4-p3b-p0---3-p2b-p0--|
|-9~---------0~---------8~-------------------------------|
|-9~---------x----------8~-------------------------------|
|-7~---------3~---------6~-------------------------------|

Verse I x4
Verse II x4
Chorus x4
Abrupt end
(organ swell fades out)

Cheers,
Bennyshambles78
            
Submit corrections

comments powered by Disqus
↑ Back to top | Unwound Tabs for Meet The Plastics. Lyrics for acoustic guitar and electric guitar. Tablatures and chords are parodies/interpretations of the original songs. You may use it for private study, scholarship, research or language learning purposes only